  0
SECTION
  2
HEADER
  9
$ACADVER
  1
AC1012
  9
$DWGCODEPAGE
  3
dos850
  9
$INSBASE
 10
0.0
 20
0.0
 30
0.0
  9
$EXTMIN
 10
126.441802
 20
171.032396
 30
0.0
  9
$EXTMAX
 10
221.6658
 20
233.287999
 30
0.0
  9
$LIMMIN
 10
0.0
 20
0.0
  9
$LIMMAX
 10
0.0
 20
0.0
  9
$ORTHOMODE
 70
     0
  9
$REGENMODE
 70
     1
  9
$FILLMODE
 70
     1
  9
$QTEXTMODE
 70
     0
  9
$MIRRTEXT
 70
     1
  9
$DRAGMODE
 70
     2
  9
$LTSCALE
 40
1.0
  9
$OSMODE
 70
     0
  9
$ATTMODE
 70
     1
  9
$TEXTSIZE
 40
0.2
  9
$TRACEWID
 40
0.05
  9
$TEXTSTYLE
  7
STANDARD
  9
$CLAYER
  8
0
  9
$CELTYPE
  6
CONTINUOUS
  9
$CECOLOR
 62
   256
  9
$CELTSCALE
 40
1.0
  9
$DELOBJ
 70
     1
  9
$DISPSILH
 70
     0
  9
$DIMSCALE
 40
1.0
  9
$DIMASZ
 40
0.18
  9
$DIMEXO
 40
0.0625
  9
$DIMDLI
 40
0.38
  9
$DIMRND
 40
0.0
  9
$DIMDLE
 40
0.0
  9
$DIMEXE
 40
0.18
  9
$DIMTP
 40
0.0
  9
$DIMTM
 40
0.0
  9
$DIMTXT
 40
0.18
  9
$DIMCEN
 40
0.09
  9
$DIMTSZ
 40
0.0
  9
$DIMTOL
 70
     0
  9
$DIMLIM
 70
     0
  9
$DIMTIH
 70
     1
  9
$DIMTOH
 70
     1
  9
$DIMSE1
 70
     0
  9
$DIMSE2
 70
     0
  9
$DIMTAD
 70
     0
  9
$DIMZIN
 70
     0
  9
$DIMBLK
  1

  9
$DIMASO
 70
     1
  9
$DIMSHO
 70
     1
  9
$DIMPOST
  1

  9
$DIMAPOST
  1

  9
$DIMALT
 70
     0
  9
$DIMALTD
 70
     2
  9
$DIMALTF
 40
25.4
  9
$DIMLFAC
 40
1.0
  9
$DIMTOFL
 70
     0
  9
$DIMTVP
 40
0.0
  9
$DIMTIX
 70
     0
  9
$DIMSOXD
 70
     0
  9
$DIMSAH
 70
     0
  9
$DIMBLK1
  1

  9
$DIMBLK2
  1

  9
$DIMSTYLE
  2
STANDARD
  9
$DIMCLRD
 70
     0
  9
$DIMCLRE
 70
     0
  9
$DIMCLRT
 70
     0
  9
$DIMTFAC
 40
1.0
  9
$DIMGAP
 40
0.09
  9
$DIMJUST
 70
     0
  9
$DIMSD1
 70
     0
  9
$DIMSD2
 70
     0
  9
$DIMTOLJ
 70
     1
  9
$DIMTZIN
 70
     0
  9
$DIMALTZ
 70
     0
  9
$DIMALTTZ
 70
     0
  9
$DIMFIT
 70
     3
  9
$DIMUPT
 70
     0
  9
$DIMUNIT
 70
     2
  9
$DIMDEC
 70
     4
  9
$DIMTDEC
 70
     4
  9
$DIMALTU
 70
     2
  9
$DIMALTTD
 70
     2
  9
$DIMTXSTY
  7
STANDARD
  9
$DIMAUNIT
 70
     0
  9
$LUNITS
 70
     2
  9
$LUPREC
 70
     4
  9
$SKETCHINC
 40
0.1
  9
$FILLETRAD
 40
0.0
  9
$AUNITS
 70
     0
  9
$AUPREC
 70
     0
  9
$MENU
  1
acad
  9
$ELEVATION
 40
0.0
  9
$PELEVATION
 40
0.0
  9
$THICKNESS
 40
0.0
  9
$LIMCHECK
 70
     0
  9
$BLIPMODE
 70
     1
  9
$CHAMFERA
 40
0.0
  9
$CHAMFERB
 40
0.0
  9
$CHAMFERC
 40
0.0
  9
$CHAMFERD
 40
0.0
  9
$SKPOLY
 70
     0
  9
$TDCREATE
 40
0.000000000
  9
$TDUPDATE
 40
0.000000000
  9
$TDINDWG
 40
0.0000000000
  9
$TDUSRTIMER
 40
0.0000000000
  9
$USRTIMER
 70
     1
  9
$ANGBASE
 50
0.0
  9
$ANGDIR
 70
     0
  9
$PDMODE
 70
     0
  9
$PDSIZE
 40
0.0
  9
$PLINEWID
 40
0.0
  9
$COORDS
 70
     0
  9
$SPLFRAME
 70
     0
  9
$SPLINETYPE
 70
     6
  9
$SPLINESEGS
 70
     8
  9
$ATTDIA
 70
     0
  9
$ATTREQ
 70
     1
  9
$HANDLING
 70
     1
  9
$HANDSEED
  5
6A8
  9
$SURFTAB1
 70
     6
  9
$SURFTAB2
 70
     6
  9
$SURFTYPE
 70
     6
  9
$SURFU
 70
     6
  9
$SURFV
 70
     6
  9
$UCSNAME
  2

  9
$UCSORG
 10
0.0
 20
0.0
 30
0.0
  9
$UCSXDIR
 10
1.0
 20
0.0
 30
0.0
  9
$UCSYDIR
 10
0.0
 20
1.0
 30
0.0
  9
$PUCSNAME
  2

  9
$PUCSORG
 10
0.0
 20
0.0
 30
0.0
  9
$PUCSXDIR
 10
1.0
 20
0.0
 30
0.0
  9
$PUCSYDIR
 10
0.0
 20
1.0
 30
0.0
  9
$USERI1
 70
     0
  9
$USERI2
 70
     0
  9
$USERI3
 70
     0
  9
$USERI4
 70
     0
  9
$USERI5
 70
     0
  9
$USERR1
 40
0.0
  9
$USERR2
 40
0.0
  9
$USERR3
 40
0.0
  9
$USERR4
 40
0.0
  9
$USERR5
 40
0.0
  9
$WORLDVIEW
 70
     1
  9
$SHADEDGE
 70
     3
  9
$SHADEDIF
 70
    70
  9
$TILEMODE
 70
     1
  9
$MAXACTVP
 70
    16
  9
$PINSBASE
 10
0.0
 20
0.0
 30
0.0
  9
$PLIMCHECK
 70
     0
  9
$PEXTMIN
 10
1.000000E+20
 20
1.000000E+20
 30
1.000000E+20
  9
$PEXTMAX
 10
-1.000000E+20
 20
-1.000000E+20
 30
-1.000000E+20
  9
$PLIMMIN
 10
0.0
 20
0.0
  9
$PLIMMAX
 10
12.0
 20
9.0
  9
$UNITMODE
 70
     0
  9
$VISRETAIN
 70
     0
  9
$PLINEGEN
 70
     1
  9
$PSLTSCALE
 70
     0
  9
$TREEDEPTH
 70
  3020
  9
$PICKSTYLE
 70
     1
  9
$CMLSTYLE
  2
Standard
  9
$CMLJUST
 70
     0
  9
$CMLSCALE
 40
1.0
  9
$SAVEIMAGES
 70
     0
  0
ENDSEC
  0
SECTION
  2
CLASSES
  0
CLASS
  1
LWPOLYLINE
  2
AcDbPolyline
  3
"AutoCAD"
 90
        0
280
     0
281
     1
  0
CLASS
  1
IMAGE
  2
AcDbRasterImage
  3
ISM
 90
      127
280
     0
281
     1
  0
CLASS
  1
OLE2FRAME
  2
AcDbOle2Frame
  3
""
 90
        0
280
     0
281
     1
  0
CLASS
  1
HATCH
  2
AcDbHatch
  3
"ACAD_SEDONA"
 90
        0
280
     0
281
     1
  0
CLASS
  1
DICTIONARYVAR
  2
AcDbDictionaryVar
  3
"AutoCAD"
 90
        0
280
     0
281
     0
  0
CLASS
  1
RASTERVARIABLES
  2
AcDbRasterVariables
  3
ISM
 90
        0
280
     0
281
     0
  0
CLASS
  1
IMAGEDEF
  2
AcDbRasterImageDef
  3
ISM
 90
        0
280
     0
281
     0
  0
CLASS
  1
IMAGEDEF_REACTOR
  2
AcDbRasterImageDefReactor
  3
ISM
 90
        1
280
     0
281
     0
  0
CLASS
  1
IDBUFFER
  2
AcDbIdBuffer
  3
"Acad"
 90
        0
280
     0
281
     0
  0
CLASS
  1
SPATIAL_FILTER
  2
AcDbSpatialFilter
  3
"Acad"
 90
        0
280
     0
281
     0
  0
CLASS
  1
XRECORD
  2
AcDbXrecord
  3
"<Built In>"
 90
        0
280
     0
281
     0
  0
CLASS
  1
SORTENTSTABLE
  2
AcDbSortentsTable
  3
"AutoCAD"
 90
        0
280
     0
281
     0
  0
CLASS
  1
LAYER_INDEX
  2
AcDbLayerIndex
  3
"Acad"
 90
        0
280
     0
281
     0
  0
CLASS
  1
SPATIAL_INDEX
  2
AcDbSpatialIndex
  3
"Acad"
 90
        0
280
     0
281
     0
  0
CLASS
  1
OBJECT_PTR
  2
CAseDLPNTableRecord
  3
"ASE-LPNTableRecord"
 90
        1
280
     0
281
     0
  0
CLASS
  1
LAYOUT
  2
AcDbLayout
  3
"AutoCAD 2000"
 90
        1
280
     0
281
     0
  0
CLASS
  1
PLOTSETTINGS
  2
AcDbPlotSettings
  3
"AutoCAD 2000"
 90
        1
280
     0
281
     0
  0
CLASS
  1
ACDBDICTIONARYWDFLT
  2
AcDbDictionaryWithDefault
  3
"AutoCAD 2000"
 90
        1
280
     0
281
     0
  0
CLASS
  1
ACDBPLACEHOLDER
  2
AcDbPlaceHolder
  3
"AutoCAD 2000"
 90
        1
280
     0
281
     0
  0
CLASS
  1
VBA_PROJECT
  2
AcDbVbaProject
  3
"acadvba"
 90
        1
280
     0
281
     0
  0
CLASS
  1
WIPEOUT
  2
AcDbWipeout
  3
WipeOut|AutoCAD Express Tool|expresstools@autodesk.com
 90
      127
280
     0
281
     1
  0
CLASS
  1
WIPEOUTVARIABLES
  2
AcDbWipeoutVariables
  3
WipeOut|AutoCAD Express Tool|expresstools@autodesk.com
 90
        0
280
     0
281
     0
  0
CLASS
  1
RTEXT
  2
RText
  3
RText|AutoCAD Express Tool|expresstools@autodesk.com
 90
        0
280
     0
281
     1
  0
CLASS
  1
ARCALIGNEDTEXT
  2
AcDbArcAlignedText
  3
ATEXT|AutoCAD Express Tool|expresstools@autodesk.com
 90
        0
280
     0
281
     1
  0
ENDSEC
  0
SECTION
  2
TABLES
  0
TABLE
  2
VPORT
  5
7
100
AcDbSymbolTable
 70
     1
  0
VPORT
  5
15
100
AcDbSymbolTableRecord
100
AcDbViewportTableRecord
  2
*ACTIVE
 70
     0
 10
0.0
 20
0.0
 11
1.0
 21
1.0
 12
6.591288
 22
4.579184
 13
0.0
 23
0.0
 14
1.0
 24
1.0
 15
0.0
 25
0.0
 16
0.0
 26
0.0
 36
1.0
 17
0.0
 27
0.0
 37
0.0
 40
9.158369
 41
0.688564
 42
50.0
 43
0.0
 44
0.0
 50
0.0
 51
0.0
 71
     0
 72
   100
 73
     1
 74
     1
 75
     0
 76
     0
 77
     0
 78
     0
  0
ENDTAB
  0
TABLE
  2
LTYPE
  5
4
100
AcDbSymbolTable
 70
     3
  0
LTYPE
  5
11
100
AcDbSymbolTableRecord
100
AcDbLinetypeTableRecord
  2
BYBLOCK
 70
    64
  3

 72
    65
 73
     0
 40
0.0
  0
LTYPE
  5
12
100
AcDbSymbolTableRecord
100
AcDbLinetypeTableRecord
  2
BYLAYER
 70
    64
  3

 72
    65
 73
     0
 40
0.0
  0
LTYPE
  5
13
100
AcDbSymbolTableRecord
100
AcDbLinetypeTableRecord
  2
CONTINUOUS
 70
    64
  3
Solid line
 72
    65
 73
     0
 40
0.0
  0
ENDTAB
  0
TABLE
  2
LAYER
  5
2
100
AcDbSymbolTable
 70
    10
  0
LAYER
  5
14
100
AcDbSymbolTableRecord
100
AcDbLayerTableRecord
  2
0
 70
     0
 62
     7
  6
CONTINUOUS
  0
LAYER
  5
1D
100
AcDbSymbolTableRecord
100
AcDbLayerTableRecord
  2
TOPLAYER
 70
     0
 62
     1
  6
CONTINUOUS
  0
LAYER
  5
1E
100
AcDbSymbolTableRecord
100
AcDbLayerTableRecord
  2
BOTTOMLAYER
 70
     0
 62
     5
  6
CONTINUOUS
  0
LAYER
  5
1F
100
AcDbSymbolTableRecord
100
AcDbLayerTableRecord
  2
TOPOVERLAY
 70
     0
 62
     2
  6
CONTINUOUS
  0
LAYER
  5
20
100
AcDbSymbolTableRecord
100
AcDbLayerTableRecord
  2
TOPPASTE
 70
     0
 62
     8
  6
CONTINUOUS
  0
LAYER
  5
21
100
AcDbSymbolTableRecord
100
AcDbLayerTableRecord
  2
BOTTOMPASTE
 70
     0
 62
    16
  6
CONTINUOUS
  0
LAYER
  5
22
100
AcDbSymbolTableRecord
100
AcDbLayerTableRecord
  2
TOPSOLDER
 70
     0
 62
   216
  6
CONTINUOUS
  0
LAYER
  5
23
100
AcDbSymbolTableRecord
100
AcDbLayerTableRecord
  2
BOTTOMSOLDER
 70
     0
 62
     6
  6
CONTINUOUS
  0
LAYER
  5
24
100
AcDbSymbolTableRecord
100
AcDbLayerTableRecord
  2
KEEPOUTLAYER
 70
     0
 62
     6
  6
CONTINUOUS
  0
LAYER
  5
25
100
AcDbSymbolTableRecord
100
AcDbLayerTableRecord
  2
MULTILAYER
 70
     0
 62
     9
  6
CONTINUOUS
  0
ENDTAB
  0
TABLE
  2
STYLE
  5
3
100
AcDbSymbolTable
 70
     1
  0
STYLE
  5
17
100
AcDbSymbolTableRecord
100
AcDbTextStyleTableRecord
  2
STANDARD
 70
     0
 40
0.0
 41
1.0
 50
0.0
 71
     0
 42
0.0
  3
txt
  4

  0
ENDTAB
  0
TABLE
  2
VIEW
  5
5
100
AcDbSymbolTable
 70
     0
  0
ENDTAB
  0
TABLE
  2
UCS
  5
6
100
AcDbSymbolTable
 70
     0
  0
ENDTAB
  0
TABLE
  2
APPID
  5
8
100
AcDbSymbolTable
 70
     1
  0
APPID
  5
16
100
AcDbSymbolTableRecord
100
AcDbRegAppTableRecord
  2
ACAD
 70
     0
  0
ENDTAB
  0
TABLE
  2
DIMSTYLE
  5
9
100
AcDbSymbolTable
 70
     1
  0
DIMSTYLE
105
18
100
AcDbSymbolTableRecord
100
AcDbDimStyleTableRecord
  2
STANDARD
 70
     0
  3

  4

  5

  6

  7

 40
1.0
 41
0.18
 42
0.0625
 43
0.38
 44
0.18
 45
0.0
 46
0.0
 47
0.0
 48
0.0
 71
     0
 72
     0
 73
     1
 74
     1
 75
     0
 76
     0
 77
     0
 78
     0
140
0.18
141
0.09
142
0.0
143
25.4
144
1.0
145
0.0
146
1.0
147
0.09
170
     0
171
     2
172
     0
173
     0
174
     0
175
     0
176
     0
177
     0
178
     0
270
     2
271
     4
272
     4
273
     2
274
     2
275
     0
280
     0
281
     0
282
     0
283
     1
284
     0
285
     0
286
     0
287
     0
288
     0
340
17
  0
ENDTAB
  0
TABLE
  2
BLOCK_RECORD
  5
1
100
AcDbSymbolTable
 70
     4
  0
BLOCK_RECORD
  5
A
100
AcDbSymbolTableRecord
100
AcDbBlockTableRecord
  2
*MODEL_SPACE
  0
BLOCK_RECORD
  5
B
100
AcDbSymbolTableRecord
100
AcDbBlockTableRecord
  2
*PAPER_SPACE
  0
BLOCK_RECORD
  5
13A
100
AcDbSymbolTableRecord
100
AcDbBlockTableRecord
  2
HY32D_1
  0
BLOCK_RECORD
  5
20B
100
AcDbSymbolTableRecord
100
AcDbBlockTableRecord
  2
IDC34_2
  0
BLOCK_RECORD
  5
3E8
100
AcDbSymbolTableRecord
100
AcDbBlockTableRecord
  2
3_2TFT_3
  0
BLOCK_RECORD
  5
4C9
100
AcDbSymbolTableRecord
100
AcDbBlockTableRecord
  2
IDC34_4
  0
ENDTAB
  0
ENDSEC
  0
SECTION
  2
BLOCKS
  0
BLOCK
  5
D
100
AcDbEntity
  8
0
100
AcDbBlockBegin
  2
*MODEL_SPACE
 70
     0
 10
0.0
 20
0.0
 30
0.0
  3
*MODEL_SPACE
  1

  0
ENDBLK
  5
E
100
AcDbEntity
  8
0
100
AcDbBlockEnd
  0
BLOCK
  5
F
100
AcDbEntity
 67
     1
  8
0
100
AcDbBlockBegin
  2
*PAPER_SPACE
 70
     0
 10
0.0
 20
0.0
 30
0.0
  3
*PAPER_SPACE
  1

  0
ENDBLK
  5
10
100
AcDbEntity
 67
     1
  8
0
100
AcDbBlockEnd
  0
BLOCK
  5
13B
100
AcDbEntity
  8
0
100
AcDbBlockBegin
  2
HY32D_1
 70
     0
 10
0.0
 20
0.0
 30
0.0
  3
HY32D_1
  1

  0
POLYLINE
  5
13C
100
AcDbEntity
  8
TOPOVERLAY
100
AcDb2dPolyline
 66
     1
 10
0.0
 20
0.0
 30
0.0
 40
0.1
 41
0.1
 75
     8
  0
VERTEX
  5
13D
100
AcDbEntity
  8
TOPOVERLAY
100
AcDbVertex
100
AcDb2dVertex
 10
76.2
 20
-55.039999
 30
0.0
  0
VERTEX
  5
13E
100
AcDbEntity
  8
TOPOVERLAY
100
AcDbVertex
100
AcDb2dVertex
 10
77.7
 20
-55.039999
 30
0.0
  0
SEQEND
  5
13F
100
AcDbEntity
  8
0
  0
POLYLINE
  5
140
100
AcDbEntity
  8
TOPOVERLAY
100
AcDb2dPolyline
 66
     1
 10
0.0
 20
0.0
 30
0.0
 70
     1
 40
0.05
 41
0.05
 75
     8
  0
VERTEX
  5
141
100
AcDbEntity
  8
TOPOVERLAY
100
AcDbVertex
100
AcDb2dVertex
 10
76.175001
 20
-55.039999
 30
0.0
 42
1.0
  0
VERTEX
  5
142
100
AcDbEntity
  8
TOPOVERLAY
100
AcDbVertex
100
AcDb2dVertex
 10
76.224999
 20
-55.039999
 30
0.0
 42
1.0
  0
SEQEND
  5
143
100
AcDbEntity
  8
0
  0
POLYLINE
  5
144
100
AcDbEntity
  8
TOPOVERLAY
100
AcDb2dPolyline
 66
     1
 10
0.0
 20
0.0
 30
0.0
 70
     1
 40
0.05
 41
0.05
 75
     8
  0
VERTEX
  5
145
100
AcDbEntity
  8
TOPOVERLAY
100
AcDbVertex
100
AcDb2dVertex
 10
77.675001
 20
-55.039999
 30
0.0
 42
1.0
  0
VERTEX
  5
146
100
AcDbEntity
  8
TOPOVERLAY
100
AcDbVertex
100
AcDb2dVertex
 10
77.724998
 20
-55.039999
 30
0.0
 42
1.0
  0
SEQEND
  5
147
100
AcDbEntity
  8
0
  0
POLYLINE
  5
148
100
AcDbEntity
  8
TOPOVERLAY
100
AcDb2dPolyline
 66
     1
 10
0.0
 20
0.0
 30
0.0
 40
0.1
 41
0.1
 75
     8
  0
VERTEX
  5
149
100
AcDbEntity
  8
TOPOVERLAY
100
AcDbVertex
100
AcDb2dVertex
 10
76.2
 20
0.0
 30
0.0
  0
VERTEX
  5
14A
100
AcDbEntity
  8
TOPOVERLAY
100
AcDbVertex
100
AcDb2dVertex
 10
77.7
 20
0.0
 30
0.0
  0
SEQEND
  5
14B
100
AcDbEntity
  8
0
  0
POLYLINE
  5
14C
100
AcDbEntity
  8
TOPOVERLAY
100
AcDb2dPolyline
 66
     1
 10
0.0
 20
0.0
 30
0.0
 70
     1
 40
0.05
 41
0.05
 75
     8
  0
VERTEX
  5
14D
100
AcDbEntity
  8
TOPOVERLAY
100
AcDbVertex
100
AcDb2dVertex
 10
76.175001
 20
0.0
 30
0.0
 42
1.0
  0
VERTEX
  5
14E
100
AcDbEntity
  8
TOPOVERLAY
100
AcDbVertex
100
AcDb2dVertex
 10
76.224999
 20
0.0
 30
0.0
 42
1.0
  0
SEQEND
  5
14F
100
AcDbEntity
  8
0
  0
POLYLINE
  5
150
100
AcDbEntity
  8
TOPOVERLAY
100
AcDb2dPolyline
 66
     1
 10
0.0
 20
0.0
 30
0.0
 70
     1
 40
0.05
 41
0.05
 75
     8
  0
VERTEX
  5
151
100
AcDbEntity
  8
TOPOVERLAY
100
AcDbVertex
100
AcDb2dVertex
 10
77.675001
 20
0.0
 30
0.0
 42
1.0
  0
VERTEX
  5
152
100
AcDbEntity
  8
TOPOVERLAY
100
AcDbVertex
100
AcDb2dVertex
 10
77.724998
 20
0.0
 30
0.0
 42
1.0
  0
SEQEND
  5
153
100
AcDbEntity
  8
0
  0
POLYLINE
  5
154
100
AcDbEntity
  8
TOPOVERLAY
100
AcDb2dPolyline
 66
     1
 10
0.0
 20
0.0
 30
0.0
 40
0.254
 41
0.254
 75
     8
  0
VERTEX
  5
155
100
AcDbEntity
  8
TOPOVERLAY
100
AcDbVertex
100
AcDb2dVertex
 10
0.0
 20
-55.039999
 30
0.0
  0
VERTEX
  5
156
100
AcDbEntity
  8
TOPOVERLAY
100
AcDbVertex
100
AcDb2dVertex
 10
0.0
 20
0.0
 30
0.0
  0
SEQEND
  5
157
100
AcDbEntity
  8
0
  0
POLYLINE
  5
158
100
AcDbEntity
  8
TOPOVERLAY
100
AcDb2dPolyline
 66
     1
 10
0.0
 20
0.0
 30
0.0
 70
     1
 40
0.127
 41
0.127
 75
     8
  0
VERTEX
  5
159
100
AcDbEntity
  8
TOPOVERLAY
100
AcDbVertex
100
AcDb2dVertex
 10
-0.0635
 20
-55.039999
 30
0.0
 42
1.0
  0
VERTEX
  5
15A
100
AcDbEntity
  8
TOPOVERLAY
100
AcDbVertex
100
AcDb2dVertex
 10
0.0635
 20
-55.039999
 30
0.0
 42
1.0
  0
SEQEND
  5
15B
100
AcDbEntity
  8
0
  0
POLYLINE
  5
15C
100
AcDbEntity
  8
TOPOVERLAY
100
AcDb2dPolyline
 66
     1
 10
0.0
 20
0.0
 30
0.0
 70
     1
 40
0.127
 41
0.127
 75
     8
  0
VERTEX
  5
15D
100
AcDbEntity
  8
TOPOVERLAY
100
AcDbVertex
100
AcDb2dVertex
 10
-0.0635
 20
0.0
 30
0.0
 42
1.0
  0
VERTEX
  5
15E
100
AcDbEntity
  8
TOPOVERLAY
100
AcDbVertex
100
AcDb2dVertex
 10
0.0635
 20
0.0
 30
0.0
 42
1.0
  0
SEQEND
  5
15F
100
AcDbEntity
  8
0
  0
POLYLINE
  5
160
100
AcDbEntity
  8
TOPOVERLAY
100
AcDb2dPolyline
 66
     1
 10
0.0
 20
0.0
 30
0.0
 40
0.254
 41
0.254
 75
     8
  0
VERTEX
  5
161
100
AcDbEntity
  8
TOPOVERLAY
100
AcDbVertex
100
AcDb2dVertex
 10
77.7
 20
-55.039999
 30
0.0
  0
VERTEX
  5
162
100
AcDbEntity
  8
TOPOVERLAY
100
AcDbVertex
100
AcDb2dVertex
 10
77.7
 20
0.0
 30
0.0
  0
SEQEND
  5
163
100
AcDbEntity
  8
0
  0
POLYLINE
  5
164
100
AcDbEntity
  8
TOPOVERLAY
100
AcDb2dPolyline
 66
     1
 10
0.0
 20
0.0
 30
0.0
 70
     1
 40
0.127
 41
0.127
 75
     8
  0
VERTEX
  5
165
100
AcDbEntity
  8
TOPOVERLAY
100
AcDbVertex
100
AcDb2dVertex
 10
77.6365
 20
-55.039999
 30
0.0
 42
1.0
  0
VERTEX
  5
166
100
AcDbEntity
  8
TOPOVERLAY
100
AcDbVertex
100
AcDb2dVertex
 10
77.7635
 20
-55.039999
 30
0.0
 42
1.0
  0
SEQEND
  5
167
100
AcDbEntity
  8
0
  0
POLYLINE
  5
168
100
AcDbEntity
  8
TOPOVERLAY
100
AcDb2dPolyline
 66
     1
 10
0.0
 20
0.0
 30
0.0
 70
     1
 40
0.127
 41
0.127
 75
     8
  0
VERTEX
  5
169
100
AcDbEntity
  8
TOPOVERLAY
100
AcDbVertex
100
AcDb2dVertex
 10
77.6365
 20
0.0
 30
0.0
 42
1.0
  0
VERTEX
  5
16A
100
AcDbEntity
  8
TOPOVERLAY
100
AcDbVertex
100
AcDb2dVertex
 10
77.7635
 20
0.0
 30
0.0
 42
1.0
  0
SEQEND
  5
16B
100
AcDbEntity
  8
0
  0
POLYLINE
  5
16C
100
AcDbEntity
  8
TOPOVERLAY
100
AcDb2dPolyline
 66
     1
 10
0.0
 20
0.0
 30
0.0
 40
0.1
 41
0.1
 75
     8
  0
VERTEX
  5
16D
100
AcDbEntity
  8
TOPOVERLAY
100
AcDbVertex
100
AcDb2dVertex
 10
76.2
 20
-55.039999
 30
0.0
  0
VERTEX
  5
16E
100
AcDbEntity
  8
TOPOVERLAY
100
AcDbVertex
100
AcDb2dVertex
 10
76.2
 20
-54.54
 30
0.0
  0
SEQEND
  5
16F
100
AcDbEntity
  8
0
  0
POLYLINE
  5
170
100
AcDbEntity
  8
TOPOVERLAY
100
AcDb2dPolyline
 66
     1
 10
0.0
 20
0.0
 30
0.0
 70
     1
 40
0.05
 41
0.05
 75
     8
  0
VERTEX
  5
171
100
AcDbEntity
  8
TOPOVERLAY
100
AcDbVertex
100
AcDb2dVertex
 10
76.175001
 20
-55.039999
 30
0.0
 42
1.0
  0
VERTEX
  5
172
100
AcDbEntity
  8
TOPOVERLAY
100
AcDbVertex
100
AcDb2dVertex
 10
76.224999
 20
-55.039999
 30
0.0
 42
1.0
  0
SEQEND
  5
173
100
AcDbEntity
  8
0
  0
POLYLINE
  5
174
100
AcDbEntity
  8
TOPOVERLAY
100
AcDb2dPolyline
 66
     1
 10
0.0
 20
0.0
 30
0.0
 70
     1
 40
0.05
 41
0.05
 75
     8
  0
VERTEX
  5
175
100
AcDbEntity
  8
TOPOVERLAY
100
AcDbVertex
100
AcDb2dVertex
 10
76.175001
 20
-54.54
 30
0.0
 42
1.0
  0
VERTEX
  5
176
100
AcDbEntity
  8
TOPOVERLAY
100
AcDbVertex
100
AcDb2dVertex
 10
76.224999
 20
-54.54
 30
0.0
 42
1.0
  0
SEQEND
  5
177
100
AcDbEntity
  8
0
  0
POLYLINE
  5
178
100
AcDbEntity
  8
TOPOVERLAY
100
AcDb2dPolyline
 66
     1
 10
0.0
 20
0.0
 30
0.0
 40
0.254
 41
0.254
 75
     8
  0
VERTEX
  5
179
100
AcDbEntity
  8
TOPOVERLAY
100
AcDbVertex
100
AcDb2dVertex
 10
0.0
 20
-55.039999
 30
0.0
  0
VERTEX
  5
17A
100
AcDbEntity
  8
TOPOVERLAY
100
AcDbVertex
100
AcDb2dVertex
 10
77.7
 20
-55.039999
 30
0.0
  0
SEQEND
  5
17B
100
AcDbEntity
  8
0
  0
POLYLINE
  5
17C
100
AcDbEntity
  8
TOPOVERLAY
100
AcDb2dPolyline
 66
     1
 10
0.0
 20
0.0
 30
0.0
 70
     1
 40
0.127
 41
0.127
 75
     8
  0
VERTEX
  5
17D
100
AcDbEntity
  8
TOPOVERLAY
100
AcDbVertex
100
AcDb2dVertex
 10
-0.0635
 20
-55.039999
 30
0.0
 42
1.0
  0
VERTEX
  5
17E
100
AcDbEntity
  8
TOPOVERLAY
100
AcDbVertex
100
AcDb2dVertex
 10
0.0635
 20
-55.039999
 30
0.0
 42
1.0
  0
SEQEND
  5
17F
100
AcDbEntity
  8
0
  0
POLYLINE
  5
180
100
AcDbEntity
  8
TOPOVERLAY
100
AcDb2dPolyline
 66
     1
 10
0.0
 20
0.0
 30
0.0
 70
     1
 40
0.127
 41
0.127
 75
     8
  0
VERTEX
  5
181
100
AcDbEntity
  8
TOPOVERLAY
100
AcDbVertex
100
AcDb2dVertex
 10
77.6365
 20
-55.039999
 30
0.0
 42
1.0
  0
VERTEX
  5
182
100
AcDbEntity
  8
TOPOVERLAY
100
AcDbVertex
100
AcDb2dVertex
 10
77.7635
 20
-55.039999
 30
0.0
 42
1.0
  0
SEQEND
  5
183
100
AcDbEntity
  8
0
  0
POLYLINE
  5
184
100
AcDbEntity
  8
TOPOVERLAY
100
AcDb2dPolyline
 66
     1
 10
0.0
 20
0.0
 30
0.0
 40
0.254
 41
0.254
 75
     8
  0
VERTEX
  5
185
100
AcDbEntity
  8
TOPOVERLAY
100
AcDbVertex
100
AcDb2dVertex
 10
0.0
 20
0.0
 30
0.0
  0
VERTEX
  5
186
100
AcDbEntity
  8
TOPOVERLAY
100
AcDbVertex
100
AcDb2dVertex
 10
77.7
 20
0.0
 30
0.0
  0
SEQEND
  5
187
100
AcDbEntity
  8
0
  0
POLYLINE
  5
188
100
AcDbEntity
  8
TOPOVERLAY
100
AcDb2dPolyline
 66
     1
 10
0.0
 20
0.0
 30
0.0
 70
     1
 40
0.127
 41
0.127
 75
     8
  0
VERTEX
  5
189
100
AcDbEntity
  8
TOPOVERLAY
100
AcDbVertex
100
AcDb2dVertex
 10
-0.0635
 20
0.0
 30
0.0
 42
1.0
  0
VERTEX
  5
18A
100
AcDbEntity
  8
TOPOVERLAY
100
AcDbVertex
100
AcDb2dVertex
 10
0.0635
 20
0.0
 30
0.0
 42
1.0
  0
SEQEND
  5
18B
100
AcDbEntity
  8
0
  0
POLYLINE
  5
18C
100
AcDbEntity
  8
TOPOVERLAY
100
AcDb2dPolyline
 66
     1
 10
0.0
 20
0.0
 30
0.0
 70
     1
 40
0.127
 41
0.127
 75
     8
  0
VERTEX
  5
18D
100
AcDbEntity
  8
TOPOVERLAY
100
AcDbVertex
100
AcDb2dVertex
 10
77.6365
 20
0.0
 30
0.0
 42
1.0
  0
VERTEX
  5
18E
100
AcDbEntity
  8
TOPOVERLAY
100
AcDbVertex
100
AcDb2dVertex
 10
77.7635
 20
0.0
 30
0.0
 42
1.0
  0
SEQEND
  5
18F
100
AcDbEntity
  8
0
  0
SOLID
  5
190
100
AcDbEntity
  8
TOPSOLDER
100
AcDbTrace
 10
76.0984
 20
-0.601599
 30
0.0
 11
76.3016
 21
-0.601599
 31
0.0
 12
76.0984
 22
-0.398399
 32
0.0
 13
76.3016
 23
-0.398399
 33
0.0
  0
SOLID
  5
191
100
AcDbEntity
  8
BOTTOMSOLDER
100
AcDbTrace
 10
76.0984
 20
-0.601599
 30
0.0
 11
76.3016
 21
-0.601599
 31
0.0
 12
76.0984
 22
-0.398399
 32
0.0
 13
76.3016
 23
-0.398399
 33
0.0
  0
SOLID
  5
192
100
AcDbEntity
  8
TOPSOLDER
100
AcDbTrace
 10
76.0984
 20
-54.6416
 30
0.0
 11
76.3016
 21
-54.6416
 31
0.0
 12
76.0984
 22
-54.4384
 32
0.0
 13
76.3016
 23
-54.4384
 33
0.0
  0
SOLID
  5
193
100
AcDbEntity
  8
BOTTOMSOLDER
100
AcDbTrace
 10
76.0984
 20
-54.6416
 30
0.0
 11
76.3016
 21
-54.6416
 31
0.0
 12
76.0984
 22
-54.4384
 32
0.0
 13
76.3016
 23
-54.4384
 33
0.0
  0
SOLID
  5
194
100
AcDbEntity
  8
TOPSOLDER
100
AcDbTrace
 10
1.0984
 20
-0.601599
 30
0.0
 11
1.3016
 21
-0.601599
 31
0.0
 12
1.0984
 22
-0.398399
 32
0.0
 13
1.3016
 23
-0.398399
 33
0.0
  0
SOLID
  5
195
100
AcDbEntity
  8
BOTTOMSOLDER
100
AcDbTrace
 10
1.0984
 20
-0.601599
 30
0.0
 11
1.3016
 21
-0.601599
 31
0.0
 12
1.0984
 22
-0.398399
 32
0.0
 13
1.3016
 23
-0.398399
 33
0.0
  0
SOLID
  5
196
100
AcDbEntity
  8
TOPSOLDER
100
AcDbTrace
 10
1.0984
 20
-54.6416
 30
0.0
 11
1.3016
 21
-54.6416
 31
0.0
 12
1.0984
 22
-54.4384
 32
0.0
 13
1.3016
 23
-54.4384
 33
0.0
  0
SOLID
  5
197
100
AcDbEntity
  8
BOTTOMSOLDER
100
AcDbTrace
 10
1.0984
 20
-54.6416
 30
0.0
 11
1.3016
 21
-54.6416
 31
0.0
 12
1.0984
 22
-54.4384
 32
0.0
 13
1.3016
 23
-54.4384
 33
0.0
  0
SOLID
  5
198
100
AcDbEntity
  8
TOPSOLDER
100
AcDbTrace
 10
21.3884
 20
-41.648431
 30
0.0
 11
21.3884
 21
-42.25163
 31
0.0
 12
25.191598
 22
-41.648431
 32
0.0
 13
25.191598
 23
-42.25163
 33
0.0
  0
SOLID
  5
199
100
AcDbEntity
  8
TOPPASTE
100
AcDbTrace
 10
21.49
 20
-41.750031
 30
0.0
 11
21.49
 21
-42.15003
 31
0.0
 12
25.089998
 22
-41.750031
 32
0.0
 13
25.089998
 23
-42.15003
 33
0.0
  0
SOLID
  5
19A
100
AcDbEntity
  8
TOPLAYER
100
AcDbTrace
 10
21.49
 20
-41.750031
 30
0.0
 11
21.49
 21
-42.15003
 31
0.0
 12
25.089998
 22
-41.750031
 32
0.0
 13
25.089998
 23
-42.15003
 33
0.0
  0
SOLID
  5
19B
100
AcDbEntity
  8
TOPSOLDER
100
AcDbTrace
 10
21.3884
 20
-40.84843
 30
0.0
 11
21.3884
 21
-41.451629
 31
0.0
 12
25.191598
 22
-40.84843
 32
0.0
 13
25.191598
 23
-41.451629
 33
0.0
  0
SOLID
  5
19C
100
AcDbEntity
  8
TOPPASTE
100
AcDbTrace
 10
21.49
 20
-40.95003
 30
0.0
 11
21.49
 21
-41.350029
 31
0.0
 12
25.089998
 22
-40.95003
 32
0.0
 13
25.089998
 23
-41.350029
 33
0.0
  0
SOLID
  5
19D
100
AcDbEntity
  8
TOPLAYER
100
AcDbTrace
 10
21.49
 20
-40.95003
 30
0.0
 11
21.49
 21
-41.350029
 31
0.0
 12
25.089998
 22
-40.95003
 32
0.0
 13
25.089998
 23
-41.350029
 33
0.0
  0
SOLID
  5
19E
100
AcDbEntity
  8
TOPSOLDER
100
AcDbTrace
 10
21.3884
 20
-40.048431
 30
0.0
 11
21.3884
 21
-40.651631
 31
0.0
 12
25.191598
 22
-40.048431
 32
0.0
 13
25.191598
 23
-40.651631
 33
0.0
  0
SOLID
  5
19F
100
AcDbEntity
  8
TOPPASTE
100
AcDbTrace
 10
21.49
 20
-40.150031
 30
0.0
 11
21.49
 21
-40.550031
 31
0.0
 12
25.089998
 22
-40.150031
 32
0.0
 13
25.089998
 23
-40.550031
 33
0.0
  0
SOLID
  5
1A0
100
AcDbEntity
  8
TOPLAYER
100
AcDbTrace
 10
21.49
 20
-40.150031
 30
0.0
 11
21.49
 21
-40.550031
 31
0.0
 12
25.089998
 22
-40.150031
 32
0.0
 13
25.089998
 23
-40.550031
 33
0.0
  0
SOLID
  5
1A1
100
AcDbEntity
  8
TOPSOLDER
100
AcDbTrace
 10
21.3884
 20
-39.248431
 30
0.0
 11
21.3884
 21
-39.85163
 31
0.0
 12
25.191598
 22
-39.248431
 32
0.0
 13
25.191598
 23
-39.85163
 33
0.0
  0
SOLID
  5
1A2
100
AcDbEntity
  8
TOPPASTE
100
AcDbTrace
 10
21.49
 20
-39.350031
 30
0.0
 11
21.49
 21
-39.75003
 31
0.0
 12
25.089998
 22
-39.350031
 32
0.0
 13
25.089998
 23
-39.75003
 33
0.0
  0
SOLID
  5
1A3
100
AcDbEntity
  8
TOPLAYER
100
AcDbTrace
 10
21.49
 20
-39.350031
 30
0.0
 11
21.49
 21
-39.75003
 31
0.0
 12
25.089998
 22
-39.350031
 32
0.0
 13
25.089998
 23
-39.75003
 33
0.0
  0
SOLID
  5
1A4
100
AcDbEntity
  8
TOPSOLDER
100
AcDbTrace
 10
21.3884
 20
-38.44843
 30
0.0
 11
21.3884
 21
-39.051629
 31
0.0
 12
25.191598
 22
-38.44843
 32
0.0
 13
25.191598
 23
-39.051629
 33
0.0
  0
SOLID
  5
1A5
100
AcDbEntity
  8
TOPPASTE
100
AcDbTrace
 10
21.49
 20
-38.55003
 30
0.0
 11
21.49
 21
-38.950029
 31
0.0
 12
25.089998
 22
-38.55003
 32
0.0
 13
25.089998
 23
-38.950029
 33
0.0
  0
SOLID
  5
1A6
100
AcDbEntity
  8
TOPLAYER
100
AcDbTrace
 10
21.49
 20
-38.55003
 30
0.0
 11
21.49
 21
-38.950029
 31
0.0
 12
25.089998
 22
-38.55003
 32
0.0
 13
25.089998
 23
-38.950029
 33
0.0
  0
SOLID
  5
1A7
100
AcDbEntity
  8
TOPSOLDER
100
AcDbTrace
 10
21.3884
 20
-37.648431
 30
0.0
 11
21.3884
 21
-38.25163
 31
0.0
 12
25.191598
 22
-37.648431
 32
0.0
 13
25.191598
 23
-38.25163
 33
0.0
  0
SOLID
  5
1A8
100
AcDbEntity
  8
TOPPASTE
100
AcDbTrace
 10
21.49
 20
-37.750031
 30
0.0
 11
21.49
 21
-38.15003
 31
0.0
 12
25.089998
 22
-37.750031
 32
0.0
 13
25.089998
 23
-38.15003
 33
0.0
  0
SOLID
  5
1A9
100
AcDbEntity
  8
TOPLAYER
100
AcDbTrace
 10
21.49
 20
-37.750031
 30
0.0
 11
21.49
 21
-38.15003
 31
0.0
 12
25.089998
 22
-37.750031
 32
0.0
 13
25.089998
 23
-38.15003
 33
0.0
  0
SOLID
  5
1AA
100
AcDbEntity
  8
TOPSOLDER
100
AcDbTrace
 10
21.3884
 20
-36.84843
 30
0.0
 11
21.3884
 21
-37.451629
 31
0.0
 12
25.191598
 22
-36.84843
 32
0.0
 13
25.191598
 23
-37.451629
 33
0.0
  0
SOLID
  5
1AB
100
AcDbEntity
  8
TOPPASTE
100
AcDbTrace
 10
21.49
 20
-36.95003
 30
0.0
 11
21.49
 21
-37.350029
 31
0.0
 12
25.089998
 22
-36.95003
 32
0.0
 13
25.089998
 23
-37.350029
 33
0.0
  0
SOLID
  5
1AC
100
AcDbEntity
  8
TOPLAYER
100
AcDbTrace
 10
21.49
 20
-36.95003
 30
0.0
 11
21.49
 21
-37.350029
 31
0.0
 12
25.089998
 22
-36.95003
 32
0.0
 13
25.089998
 23
-37.350029
 33
0.0
  0
SOLID
  5
1AD
100
AcDbEntity
  8
TOPSOLDER
100
AcDbTrace
 10
21.3884
 20
-36.048429
 30
0.0
 11
21.3884
 21
-36.651629
 31
0.0
 12
25.191598
 22
-36.048429
 32
0.0
 13
25.191598
 23
-36.651628
 33
0.0
  0
SOLID
  5
1AE
100
AcDbEntity
  8
TOPPASTE
100
AcDbTrace
 10
21.49
 20
-36.150029
 30
0.0
 11
21.49
 21
-36.550028
 31
0.0
 12
25.089998
 22
-36.150029
 32
0.0
 13
25.089998
 23
-36.550028
 33
0.0
  0
SOLID
  5
1AF
100
AcDbEntity
  8
TOPLAYER
100
AcDbTrace
 10
21.49
 20
-36.150029
 30
0.0
 11
21.49
 21
-36.550028
 31
0.0
 12
25.089998
 22
-36.150029
 32
0.0
 13
25.089998
 23
-36.550028
 33
0.0
  0
SOLID
  5
1B0
100
AcDbEntity
  8
TOPSOLDER
100
AcDbTrace
 10
21.3884
 20
-35.248431
 30
0.0
 11
21.3884
 21
-35.85163
 31
0.0
 12
25.191598
 22
-35.248431
 32
0.0
 13
25.191598
 23
-35.85163
 33
0.0
  0
SOLID
  5
1B1
100
AcDbEntity
  8
TOPPASTE
100
AcDbTrace
 10
21.49
 20
-35.350031
 30
0.0
 11
21.49
 21
-35.75003
 31
0.0
 12
25.089998
 22
-35.350031
 32
0.0
 13
25.089998
 23
-35.75003
 33
0.0
  0
SOLID
  5
1B2
100
AcDbEntity
  8
TOPLAYER
100
AcDbTrace
 10
21.49
 20
-35.350031
 30
0.0
 11
21.49
 21
-35.75003
 31
0.0
 12
25.089998
 22
-35.350031
 32
0.0
 13
25.089998
 23
-35.75003
 33
0.0
  0
SOLID
  5
1B3
100
AcDbEntity
  8
TOPSOLDER
100
AcDbTrace
 10
21.3884
 20
-34.44842
 30
0.0
 11
21.3884
 21
-35.051619
 31
0.0
 12
25.191598
 22
-34.44842
 32
0.0
 13
25.191598
 23
-35.051619
 33
0.0
  0
SOLID
  5
1B4
100
AcDbEntity
  8
TOPPASTE
100
AcDbTrace
 10
21.49
 20
-34.55002
 30
0.0
 11
21.49
 21
-34.950019
 31
0.0
 12
25.089998
 22
-34.55002
 32
0.0
 13
25.089998
 23
-34.950019
 33
0.0
  0
SOLID
  5
1B5
100
AcDbEntity
  8
TOPLAYER
100
AcDbTrace
 10
21.49
 20
-34.55002
 30
0.0
 11
21.49
 21
-34.950019
 31
0.0
 12
25.089998
 22
-34.55002
 32
0.0
 13
25.089998
 23
-34.950019
 33
0.0
  0
SOLID
  5
1B6
100
AcDbEntity
  8
TOPSOLDER
100
AcDbTrace
 10
21.3884
 20
-33.648421
 30
0.0
 11
21.3884
 21
-34.251621
 31
0.0
 12
25.191598
 22
-33.648421
 32
0.0
 13
25.191598
 23
-34.251621
 33
0.0
  0
SOLID
  5
1B7
100
AcDbEntity
  8
TOPPASTE
100
AcDbTrace
 10
21.49
 20
-33.750021
 30
0.0
 11
21.49
 21
-34.150021
 31
0.0
 12
25.089998
 22
-33.750021
 32
0.0
 13
25.089998
 23
-34.150021
 33
0.0
  0
SOLID
  5
1B8
100
AcDbEntity
  8
TOPLAYER
100
AcDbTrace
 10
21.49
 20
-33.750021
 30
0.0
 11
21.49
 21
-34.150021
 31
0.0
 12
25.089998
 22
-33.750021
 32
0.0
 13
25.089998
 23
-34.150021
 33
0.0
  0
SOLID
  5
1B9
100
AcDbEntity
  8
TOPSOLDER
100
AcDbTrace
 10
21.3884
 20
-32.84842
 30
0.0
 11
21.3884
 21
-33.45162
 31
0.0
 12
25.191598
 22
-32.84842
 32
0.0
 13
25.191598
 23
-33.45162
 33
0.0
  0
SOLID
  5
1BA
100
AcDbEntity
  8
TOPPASTE
100
AcDbTrace
 10
21.49
 20
-32.95002
 30
0.0
 11
21.49
 21
-33.35002
 31
0.0
 12
25.089998
 22
-32.95002
 32
0.0
 13
25.089998
 23
-33.35002
 33
0.0
  0
SOLID
  5
1BB
100
AcDbEntity
  8
TOPLAYER
100
AcDbTrace
 10
21.49
 20
-32.95002
 30
0.0
 11
21.49
 21
-33.35002
 31
0.0
 12
25.089998
 22
-32.95002
 32
0.0
 13
25.089998
 23
-33.35002
 33
0.0
  0
SOLID
  5
1BC
100
AcDbEntity
  8
TOPSOLDER
100
AcDbTrace
 10
21.3884
 20
-32.04842
 30
0.0
 11
21.3884
 21
-32.651619
 31
0.0
 12
25.191598
 22
-32.04842
 32
0.0
 13
25.191598
 23
-32.651619
 33
0.0
  0
SOLID
  5
1BD
100
AcDbEntity
  8
TOPPASTE
100
AcDbTrace
 10
21.49
 20
-32.15002
 30
0.0
 11
21.49
 21
-32.550019
 31
0.0
 12
25.089998
 22
-32.15002
 32
0.0
 13
25.089998
 23
-32.550019
 33
0.0
  0
SOLID
  5
1BE
100
AcDbEntity
  8
TOPLAYER
100
AcDbTrace
 10
21.49
 20
-32.15002
 30
0.0
 11
21.49
 21
-32.550019
 31
0.0
 12
25.089998
 22
-32.15002
 32
0.0
 13
25.089998
 23
-32.550019
 33
0.0
  0
SOLID
  5
1BF
100
AcDbEntity
  8
TOPSOLDER
100
AcDbTrace
 10
21.3884
 20
-31.248421
 30
0.0
 11
21.3884
 21
-31.85162
 31
0.0
 12
25.191598
 22
-31.248421
 32
0.0
 13
25.191598
 23
-31.85162
 33
0.0
  0
SOLID
  5
1C0
100
AcDbEntity
  8
TOPPASTE
100
AcDbTrace
 10
21.49
 20
-31.350021
 30
0.0
 11
21.49
 21
-31.75002
 31
0.0
 12
25.089998
 22
-31.350021
 32
0.0
 13
25.089998
 23
-31.75002
 33
0.0
  0
SOLID
  5
1C1
100
AcDbEntity
  8
TOPLAYER
100
AcDbTrace
 10
21.49
 20
-31.350021
 30
0.0
 11
21.49
 21
-31.75002
 31
0.0
 12
25.089998
 22
-31.350021
 32
0.0
 13
25.089998
 23
-31.75002
 33
0.0
  0
SOLID
  5
1C2
100
AcDbEntity
  8
TOPSOLDER
100
AcDbTrace
 10
21.3884
 20
-30.44842
 30
0.0
 11
21.3884
 21
-31.051619
 31
0.0
 12
25.191598
 22
-30.44842
 32
0.0
 13
25.191598
 23
-31.051619
 33
0.0
  0
SOLID
  5
1C3
100
AcDbEntity
  8
TOPPASTE
100
AcDbTrace
 10
21.49
 20
-30.55002
 30
0.0
 11
21.49
 21
-30.950019
 31
0.0
 12
25.089998
 22
-30.55002
 32
0.0
 13
25.089998
 23
-30.950019
 33
0.0
  0
SOLID
  5
1C4
100
AcDbEntity
  8
TOPLAYER
100
AcDbTrace
 10
21.49
 20
-30.55002
 30
0.0
 11
21.49
 21
-30.950019
 31
0.0
 12
25.089998
 22
-30.55002
 32
0.0
 13
25.089998
 23
-30.950019
 33
0.0
  0
SOLID
  5
1C5
100
AcDbEntity
  8
TOPSOLDER
100
AcDbTrace
 10
21.3884
 20
-29.648419
 30
0.0
 11
21.3884
 21
-30.251618
 31
0.0
 12
25.191598
 22
-29.648419
 32
0.0
 13
25.191598
 23
-30.251618
 33
0.0
  0
SOLID
  5
1C6
100
AcDbEntity
  8
TOPPASTE
100
AcDbTrace
 10
21.49
 20
-29.750019
 30
0.0
 11
21.49
 21
-30.150018
 31
0.0
 12
25.089998
 22
-29.750019
 32
0.0
 13
25.089998
 23
-30.150018
 33
0.0
  0
SOLID
  5
1C7
100
AcDbEntity
  8
TOPLAYER
100
AcDbTrace
 10
21.49
 20
-29.750019
 30
0.0
 11
21.49
 21
-30.150018
 31
0.0
 12
25.089998
 22
-29.750019
 32
0.0
 13
25.089998
 23
-30.150018
 33
0.0
  0
SOLID
  5
1C8
100
AcDbEntity
  8
TOPSOLDER
100
AcDbTrace
 10
21.3884
 20
-28.848421
 30
0.0
 11
21.3884
 21
-29.45162
 31
0.0
 12
25.191598
 22
-28.848421
 32
0.0
 13
25.191598
 23
-29.45162
 33
0.0
  0
SOLID
  5
1C9
100
AcDbEntity
  8
TOPPASTE
100
AcDbTrace
 10
21.49
 20
-28.950021
 30
0.0
 11
21.49
 21
-29.35002
 31
0.0
 12
25.089998
 22
-28.950021
 32
0.0
 13
25.089998
 23
-29.35002
 33
0.0
  0
SOLID
  5
1CA
100
AcDbEntity
  8
TOPLAYER
100
AcDbTrace
 10
21.49
 20
-28.950021
 30
0.0
 11
21.49
 21
-29.35002
 31
0.0
 12
25.089998
 22
-28.950021
 32
0.0
 13
25.089998
 23
-29.35002
 33
0.0
  0
SOLID
  5
1CB
100
AcDbEntity
  8
TOPSOLDER
100
AcDbTrace
 10
21.3884
 20
-28.04842
 30
0.0
 11
21.3884
 21
-28.651619
 31
0.0
 12
25.191598
 22
-28.04842
 32
0.0
 13
25.191598
 23
-28.651619
 33
0.0
  0
SOLID
  5
1CC
100
AcDbEntity
  8
TOPPASTE
100
AcDbTrace
 10
21.49
 20
-28.15002
 30
0.0
 11
21.49
 21
-28.550019
 31
0.0
 12
25.089998
 22
-28.15002
 32
0.0
 13
25.089998
 23
-28.550019
 33
0.0
  0
SOLID
  5
1CD
100
AcDbEntity
  8
TOPLAYER
100
AcDbTrace
 10
21.49
 20
-28.15002
 30
0.0
 11
21.49
 21
-28.550019
 31
0.0
 12
25.089998
 22
-28.15002
 32
0.0
 13
25.089998
 23
-28.550019
 33
0.0
  0
SOLID
  5
1CE
100
AcDbEntity
  8
TOPSOLDER
100
AcDbTrace
 10
21.3884
 20
-27.248421
 30
0.0
 11
21.3884
 21
-27.851621
 31
0.0
 12
25.191598
 22
-27.248421
 32
0.0
 13
25.191598
 23
-27.851621
 33
0.0
  0
SOLID
  5
1CF
100
AcDbEntity
  8
TOPPASTE
100
AcDbTrace
 10
21.49
 20
-27.350021
 30
0.0
 11
21.49
 21
-27.750021
 31
0.0
 12
25.089998
 22
-27.350021
 32
0.0
 13
25.089998
 23
-27.750021
 33
0.0
  0
SOLID
  5
1D0
100
AcDbEntity
  8
TOPLAYER
100
AcDbTrace
 10
21.49
 20
-27.350021
 30
0.0
 11
21.49
 21
-27.750021
 31
0.0
 12
25.089998
 22
-27.350021
 32
0.0
 13
25.089998
 23
-27.750021
 33
0.0
  0
SOLID
  5
1D1
100
AcDbEntity
  8
TOPSOLDER
100
AcDbTrace
 10
21.3884
 20
-26.448421
 30
0.0
 11
21.3884
 21
-27.05162
 31
0.0
 12
25.191598
 22
-26.448421
 32
0.0
 13
25.191598
 23
-27.05162
 33
0.0
  0
SOLID
  5
1D2
100
AcDbEntity
  8
TOPPASTE
100
AcDbTrace
 10
21.49
 20
-26.550021
 30
0.0
 11
21.49
 21
-26.95002
 31
0.0
 12
25.089998
 22
-26.550021
 32
0.0
 13
25.089998
 23
-26.95002
 33
0.0
  0
SOLID
  5
1D3
100
AcDbEntity
  8
TOPLAYER
100
AcDbTrace
 10
21.49
 20
-26.550021
 30
0.0
 11
21.49
 21
-26.95002
 31
0.0
 12
25.089998
 22
-26.550021
 32
0.0
 13
25.089998
 23
-26.95002
 33
0.0
  0
SOLID
  5
1D4
100
AcDbEntity
  8
TOPSOLDER
100
AcDbTrace
 10
21.3884
 20
-25.648409
 30
0.0
 11
21.3884
 21
-26.251609
 31
0.0
 12
25.191598
 22
-25.648409
 32
0.0
 13
25.191598
 23
-26.251609
 33
0.0
  0
SOLID
  5
1D5
100
AcDbEntity
  8
TOPPASTE
100
AcDbTrace
 10
21.49
 20
-25.750009
 30
0.0
 11
21.49
 21
-26.150009
 31
0.0
 12
25.089998
 22
-25.750009
 32
0.0
 13
25.089998
 23
-26.150009
 33
0.0
  0
SOLID
  5
1D6
100
AcDbEntity
  8
TOPLAYER
100
AcDbTrace
 10
21.49
 20
-25.750009
 30
0.0
 11
21.49
 21
-26.150009
 31
0.0
 12
25.089998
 22
-25.750009
 32
0.0
 13
25.089998
 23
-26.150009
 33
0.0
  0
SOLID
  5
1D7
100
AcDbEntity
  8
TOPSOLDER
100
AcDbTrace
 10
21.3884
 20
-24.848411
 30
0.0
 11
21.3884
 21
-25.45161
 31
0.0
 12
25.191598
 22
-24.848411
 32
0.0
 13
25.191598
 23
-25.45161
 33
0.0
  0
SOLID
  5
1D8
100
AcDbEntity
  8
TOPPASTE
100
AcDbTrace
 10
21.49
 20
-24.950011
 30
0.0
 11
21.49
 21
-25.35001
 31
0.0
 12
25.089998
 22
-24.950011
 32
0.0
 13
25.089998
 23
-25.35001
 33
0.0
  0
SOLID
  5
1D9
100
AcDbEntity
  8
TOPLAYER
100
AcDbTrace
 10
21.49
 20
-24.950011
 30
0.0
 11
21.49
 21
-25.35001
 31
0.0
 12
25.089998
 22
-24.950011
 32
0.0
 13
25.089998
 23
-25.35001
 33
0.0
  0
SOLID
  5
1DA
100
AcDbEntity
  8
TOPSOLDER
100
AcDbTrace
 10
21.3884
 20
-24.04841
 30
0.0
 11
21.3884
 21
-24.651609
 31
0.0
 12
25.191598
 22
-24.04841
 32
0.0
 13
25.191598
 23
-24.651609
 33
0.0
  0
SOLID
  5
1DB
100
AcDbEntity
  8
TOPPASTE
100
AcDbTrace
 10
21.49
 20
-24.15001
 30
0.0
 11
21.49
 21
-24.550009
 31
0.0
 12
25.089998
 22
-24.15001
 32
0.0
 13
25.089998
 23
-24.550009
 33
0.0
  0
SOLID
  5
1DC
100
AcDbEntity
  8
TOPLAYER
100
AcDbTrace
 10
21.49
 20
-24.15001
 30
0.0
 11
21.49
 21
-24.550009
 31
0.0
 12
25.089998
 22
-24.15001
 32
0.0
 13
25.089998
 23
-24.550009
 33
0.0
  0
SOLID
  5
1DD
100
AcDbEntity
  8
TOPSOLDER
100
AcDbTrace
 10
21.3884
 20
-23.248409
 30
0.0
 11
21.3884
 21
-23.851608
 31
0.0
 12
25.191598
 22
-23.248409
 32
0.0
 13
25.191598
 23
-23.851608
 33
0.0
  0
SOLID
  5
1DE
100
AcDbEntity
  8
TOPPASTE
100
AcDbTrace
 10
21.49
 20
-23.350009
 30
0.0
 11
21.49
 21
-23.750008
 31
0.0
 12
25.089998
 22
-23.350009
 32
0.0
 13
25.089998
 23
-23.750008
 33
0.0
  0
SOLID
  5
1DF
100
AcDbEntity
  8
TOPLAYER
100
AcDbTrace
 10
21.49
 20
-23.350009
 30
0.0
 11
21.49
 21
-23.750008
 31
0.0
 12
25.089998
 22
-23.350009
 32
0.0
 13
25.089998
 23
-23.750008
 33
0.0
  0
SOLID
  5
1E0
100
AcDbEntity
  8
TOPSOLDER
100
AcDbTrace
 10
21.3884
 20
-22.448411
 30
0.0
 11
21.3884
 21
-23.05161
 31
0.0
 12
25.191598
 22
-22.448411
 32
0.0
 13
25.191598
 23
-23.05161
 33
0.0
  0
SOLID
  5
1E1
100
AcDbEntity
  8
TOPPASTE
100
AcDbTrace
 10
21.49
 20
-22.550011
 30
0.0
 11
21.49
 21
-22.95001
 31
0.0
 12
25.089998
 22
-22.550011
 32
0.0
 13
25.089998
 23
-22.95001
 33
0.0
  0
SOLID
  5
1E2
100
AcDbEntity
  8
TOPLAYER
100
AcDbTrace
 10
21.49
 20
-22.550011
 30
0.0
 11
21.49
 21
-22.95001
 31
0.0
 12
25.089998
 22
-22.550011
 32
0.0
 13
25.089998
 23
-22.95001
 33
0.0
  0
SOLID
  5
1E3
100
AcDbEntity
  8
TOPSOLDER
100
AcDbTrace
 10
21.3884
 20
-21.64841
 30
0.0
 11
21.3884
 21
-22.251609
 31
0.0
 12
25.191598
 22
-21.64841
 32
0.0
 13
25.191598
 23
-22.251609
 33
0.0
  0
SOLID
  5
1E4
100
AcDbEntity
  8
TOPPASTE
100
AcDbTrace
 10
21.49
 20
-21.75001
 30
0.0
 11
21.49
 21
-22.150009
 31
0.0
 12
25.089998
 22
-21.75001
 32
0.0
 13
25.089998
 23
-22.150009
 33
0.0
  0
SOLID
  5
1E5
100
AcDbEntity
  8
TOPLAYER
100
AcDbTrace
 10
21.49
 20
-21.75001
 30
0.0
 11
21.49
 21
-22.150009
 31
0.0
 12
25.089998
 22
-21.75001
 32
0.0
 13
25.089998
 23
-22.150009
 33
0.0
  0
SOLID
  5
1E6
100
AcDbEntity
  8
TOPSOLDER
100
AcDbTrace
 10
21.3884
 20
-20.848411
 30
0.0
 11
21.3884
 21
-21.451611
 31
0.0
 12
25.191598
 22
-20.848411
 32
0.0
 13
25.191598
 23
-21.451611
 33
0.0
  0
SOLID
  5
1E7
100
AcDbEntity
  8
TOPPASTE
100
AcDbTrace
 10
21.49
 20
-20.950011
 30
0.0
 11
21.49
 21
-21.350011
 31
0.0
 12
25.089998
 22
-20.950011
 32
0.0
 13
25.089998
 23
-21.350011
 33
0.0
  0
SOLID
  5
1E8
100
AcDbEntity
  8
TOPLAYER
100
AcDbTrace
 10
21.49
 20
-20.950011
 30
0.0
 11
21.49
 21
-21.350011
 31
0.0
 12
25.089998
 22
-20.950011
 32
0.0
 13
25.089998
 23
-21.350011
 33
0.0
  0
SOLID
  5
1E9
100
AcDbEntity
  8
TOPSOLDER
100
AcDbTrace
 10
21.3884
 20
-20.04841
 30
0.0
 11
21.3884
 21
-20.65161
 31
0.0
 12
25.191598
 22
-20.04841
 32
0.0
 13
25.191598
 23
-20.65161
 33
0.0
  0
SOLID
  5
1EA
100
AcDbEntity
  8
TOPPASTE
100
AcDbTrace
 10
21.49
 20
-20.15001
 30
0.0
 11
21.49
 21
-20.55001
 31
0.0
 12
25.089998
 22
-20.15001
 32
0.0
 13
25.089998
 23
-20.55001
 33
0.0
  0
SOLID
  5
1EB
100
AcDbEntity
  8
TOPLAYER
100
AcDbTrace
 10
21.49
 20
-20.15001
 30
0.0
 11
21.49
 21
-20.55001
 31
0.0
 12
25.089998
 22
-20.15001
 32
0.0
 13
25.089998
 23
-20.55001
 33
0.0
  0
SOLID
  5
1EC
100
AcDbEntity
  8
TOPSOLDER
100
AcDbTrace
 10
21.3884
 20
-19.24841
 30
0.0
 11
21.3884
 21
-19.851609
 31
0.0
 12
25.191598
 22
-19.24841
 32
0.0
 13
25.191598
 23
-19.851609
 33
0.0
  0
SOLID
  5
1ED
100
AcDbEntity
  8
TOPPASTE
100
AcDbTrace
 10
21.49
 20
-19.35001
 30
0.0
 11
21.49
 21
-19.750009
 31
0.0
 12
25.089998
 22
-19.35001
 32
0.0
 13
25.089998
 23
-19.750009
 33
0.0
  0
SOLID
  5
1EE
100
AcDbEntity
  8
TOPLAYER
100
AcDbTrace
 10
21.49
 20
-19.35001
 30
0.0
 11
21.49
 21
-19.750009
 31
0.0
 12
25.089998
 22
-19.35001
 32
0.0
 13
25.089998
 23
-19.750009
 33
0.0
  0
SOLID
  5
1EF
100
AcDbEntity
  8
TOPSOLDER
100
AcDbTrace
 10
21.3884
 20
-18.448411
 30
0.0
 11
21.3884
 21
-19.05161
 31
0.0
 12
25.191598
 22
-18.448411
 32
0.0
 13
25.191598
 23
-19.05161
 33
0.0
  0
SOLID
  5
1F0
100
AcDbEntity
  8
TOPPASTE
100
AcDbTrace
 10
21.49
 20
-18.550011
 30
0.0
 11
21.49
 21
-18.95001
 31
0.0
 12
25.089998
 22
-18.550011
 32
0.0
 13
25.089998
 23
-18.95001
 33
0.0
  0
SOLID
  5
1F1
100
AcDbEntity
  8
TOPLAYER
100
AcDbTrace
 10
21.49
 20
-18.550011
 30
0.0
 11
21.49
 21
-18.95001
 31
0.0
 12
25.089998
 22
-18.550011
 32
0.0
 13
25.089998
 23
-18.95001
 33
0.0
  0
SOLID
  5
1F2
100
AcDbEntity
  8
TOPSOLDER
100
AcDbTrace
 10
21.3884
 20
-17.6484
 30
0.0
 11
21.3884
 21
-18.251599
 31
0.0
 12
25.191598
 22
-17.6484
 32
0.0
 13
25.191598
 23
-18.251599
 33
0.0
  0
SOLID
  5
1F3
100
AcDbEntity
  8
TOPPASTE
100
AcDbTrace
 10
21.49
 20
-17.75
 30
0.0
 11
21.49
 21
-18.149999
 31
0.0
 12
25.089998
 22
-17.75
 32
0.0
 13
25.089998
 23
-18.149999
 33
0.0
  0
SOLID
  5
1F4
100
AcDbEntity
  8
TOPLAYER
100
AcDbTrace
 10
21.49
 20
-17.75
 30
0.0
 11
21.49
 21
-18.149999
 31
0.0
 12
25.089998
 22
-17.75
 32
0.0
 13
25.089998
 23
-18.149999
 33
0.0
  0
SOLID
  5
1F5
100
AcDbEntity
  8
TOPSOLDER
100
AcDbTrace
 10
21.3884
 20
-16.848402
 30
0.0
 11
21.3884
 21
-17.451601
 31
0.0
 12
25.191598
 22
-16.848402
 32
0.0
 13
25.191598
 23
-17.451601
 33
0.0
  0
SOLID
  5
1F6
100
AcDbEntity
  8
TOPPASTE
100
AcDbTrace
 10
21.49
 20
-16.950002
 30
0.0
 11
21.49
 21
-17.350001
 31
0.0
 12
25.089998
 22
-16.950002
 32
0.0
 13
25.089998
 23
-17.350001
 33
0.0
  0
SOLID
  5
1F7
100
AcDbEntity
  8
TOPLAYER
100
AcDbTrace
 10
21.49
 20
-16.950002
 30
0.0
 11
21.49
 21
-17.350001
 31
0.0
 12
25.089998
 22
-16.950002
 32
0.0
 13
25.089998
 23
-17.350001
 33
0.0
  0
SOLID
  5
1F8
100
AcDbEntity
  8
TOPSOLDER
100
AcDbTrace
 10
21.3884
 20
-16.048401
 30
0.0
 11
21.3884
 21
-16.6516
 31
0.0
 12
25.191598
 22
-16.048401
 32
0.0
 13
25.191598
 23
-16.6516
 33
0.0
  0
SOLID
  5
1F9
100
AcDbEntity
  8
TOPPASTE
100
AcDbTrace
 10
21.49
 20
-16.150001
 30
0.0
 11
21.49
 21
-16.55
 31
0.0
 12
25.089998
 22
-16.150001
 32
0.0
 13
25.089998
 23
-16.55
 33
0.0
  0
SOLID
  5
1FA
100
AcDbEntity
  8
TOPLAYER
100
AcDbTrace
 10
21.49
 20
-16.150001
 30
0.0
 11
21.49
 21
-16.55
 31
0.0
 12
25.089998
 22
-16.150001
 32
0.0
 13
25.089998
 23
-16.55
 33
0.0
  0
SOLID
  5
1FB
100
AcDbEntity
  8
TOPSOLDER
100
AcDbTrace
 10
21.3884
 20
-15.2484
 30
0.0
 11
21.3884
 21
-15.851599
 31
0.0
 12
25.191598
 22
-15.2484
 32
0.0
 13
25.191598
 23
-15.851599
 33
0.0
  0
SOLID
  5
1FC
100
AcDbEntity
  8
TOPPASTE
100
AcDbTrace
 10
21.49
 20
-15.35
 30
0.0
 11
21.49
 21
-15.749999
 31
0.0
 12
25.089998
 22
-15.35
 32
0.0
 13
25.089998
 23
-15.749999
 33
0.0
  0
SOLID
  5
1FD
100
AcDbEntity
  8
TOPLAYER
100
AcDbTrace
 10
21.49
 20
-15.35
 30
0.0
 11
21.49
 21
-15.749999
 31
0.0
 12
25.089998
 22
-15.35
 32
0.0
 13
25.089998
 23
-15.749999
 33
0.0
  0
SOLID
  5
1FE
100
AcDbEntity
  8
TOPSOLDER
100
AcDbTrace
 10
21.3884
 20
-14.448401
 30
0.0
 11
21.3884
 21
-15.051601
 31
0.0
 12
25.191598
 22
-14.448401
 32
0.0
 13
25.191598
 23
-15.051601
 33
0.0
  0
SOLID
  5
1FF
100
AcDbEntity
  8
TOPPASTE
100
AcDbTrace
 10
21.49
 20
-14.550001
 30
0.0
 11
21.49
 21
-14.950001
 31
0.0
 12
25.089998
 22
-14.550001
 32
0.0
 13
25.089998
 23
-14.950001
 33
0.0
  0
SOLID
  5
200
100
AcDbEntity
  8
TOPLAYER
100
AcDbTrace
 10
21.49
 20
-14.550001
 30
0.0
 11
21.49
 21
-14.950001
 31
0.0
 12
25.089998
 22
-14.550001
 32
0.0
 13
25.089998
 23
-14.950001
 33
0.0
  0
SOLID
  5
201
100
AcDbEntity
  8
TOPSOLDER
100
AcDbTrace
 10
21.3884
 20
-13.6484
 30
0.0
 11
21.3884
 21
-14.2516
 31
0.0
 12
25.191598
 22
-13.6484
 32
0.0
 13
25.191598
 23
-14.2516
 33
0.0
  0
SOLID
  5
202
100
AcDbEntity
  8
TOPPASTE
100
AcDbTrace
 10
21.49
 20
-13.75
 30
0.0
 11
21.49
 21
-14.15
 31
0.0
 12
25.089998
 22
-13.75
 32
0.0
 13
25.089998
 23
-14.15
 33
0.0
  0
SOLID
  5
203
100
AcDbEntity
  8
TOPLAYER
100
AcDbTrace
 10
21.49
 20
-13.75
 30
0.0
 11
21.49
 21
-14.15
 31
0.0
 12
25.089998
 22
-13.75
 32
0.0
 13
25.089998
 23
-14.15
 33
0.0
  0
SOLID
  5
204
100
AcDbEntity
  8
TOPSOLDER
100
AcDbTrace
 10
21.3884
 20
-12.848399
 30
0.0
 11
21.3884
 21
-13.451599
 31
0.0
 12
25.191598
 22
-12.848399
 32
0.0
 13
25.191598
 23
-13.451599
 33
0.0
  0
SOLID
  5
205
100
AcDbEntity
  8
TOPPASTE
100
AcDbTrace
 10
21.49
 20
-12.949999
 30
0.0
 11
21.49
 21
-13.349999
 31
0.0
 12
25.089998
 22
-12.949999
 32
0.0
 13
25.089998
 23
-13.349999
 33
0.0
  0
SOLID
  5
206
100
AcDbEntity
  8
TOPLAYER
100
AcDbTrace
 10
21.49
 20
-12.949999
 30
0.0
 11
21.49
 21
-13.349999
 31
0.0
 12
25.089998
 22
-12.949999
 32
0.0
 13
25.089998
 23
-13.349999
 33
0.0
  0
ENDBLK
  5
207
100
AcDbEntity
  8
0
100
AcDbBlockEnd
  0
BLOCK
  5
20C
100
AcDbEntity
  8
0
100
AcDbBlockBegin
  2
IDC34_2
 70
     0
 10
0.0
 20
0.0
 30
0.0
  3
IDC34_2
  1

  0
POLYLINE
  5
20D
100
AcDbEntity
  8
TOPOVERLAY
100
AcDb2dPolyline
 66
     1
 10
0.0
 20
0.0
 30
0.0
 40
0.3048
 41
0.3048
 75
     8
  0
VERTEX
  5
20E
100
AcDbEntity
  8
TOPOVERLAY
100
AcDbVertex
100
AcDb2dVertex
 10
-1.27
 20
-1.27
 30
0.0
  0
VERTEX
  5
20F
100
AcDbEntity
  8
TOPOVERLAY
100
AcDbVertex
100
AcDb2dVertex
 10
-1.27
 20
3.81
 30
0.0
  0
SEQEND
  5
210
100
AcDbEntity
  8
0
  0
POLYLINE
  5
211
100
AcDbEntity
  8
TOPOVERLAY
100
AcDb2dPolyline
 66
     1
 10
0.0
 20
0.0
 30
0.0
 70
     1
 40
0.1524
 41
0.1524
 75
     8
  0
VERTEX
  5
212
100
AcDbEntity
  8
TOPOVERLAY
100
AcDbVertex
100
AcDb2dVertex
 10
-1.3462
 20
-1.27
 30
0.0
 42
1.0
  0
VERTEX
  5
213
100
AcDbEntity
  8
TOPOVERLAY
100
AcDbVertex
100
AcDb2dVertex
 10
-1.1938
 20
-1.27
 30
0.0
 42
1.0
  0
SEQEND
  5
214
100
AcDbEntity
  8
0
  0
POLYLINE
  5
215
100
AcDbEntity
  8
TOPOVERLAY
100
AcDb2dPolyline
 66
     1
 10
0.0
 20
0.0
 30
0.0
 70
     1
 40
0.1524
 41
0.1524
 75
     8
  0
VERTEX
  5
216
100
AcDbEntity
  8
TOPOVERLAY
100
AcDbVertex
100
AcDb2dVertex
 10
-1.3462
 20
3.81
 30
0.0
 42
1.0
  0
VERTEX
  5
217
100
AcDbEntity
  8
TOPOVERLAY
100
AcDbVertex
100
AcDb2dVertex
 10
-1.1938
 20
3.81
 30
0.0
 42
1.0
  0
SEQEND
  5
218
100
AcDbEntity
  8
0
  0
POLYLINE
  5
219
100
AcDbEntity
  8
TOPOVERLAY
100
AcDb2dPolyline
 66
     1
 10
0.0
 20
0.0
 30
0.0
 40
0.3048
 41
0.3048
 75
     8
  0
VERTEX
  5
21A
100
AcDbEntity
  8
TOPOVERLAY
100
AcDbVertex
100
AcDb2dVertex
 10
41.9
 20
-1.28
 30
0.0
  0
VERTEX
  5
21B
100
AcDbEntity
  8
TOPOVERLAY
100
AcDbVertex
100
AcDb2dVertex
 10
41.9
 20
3.8
 30
0.0
  0
SEQEND
  5
21C
100
AcDbEntity
  8
0
  0
POLYLINE
  5
21D
100
AcDbEntity
  8
TOPOVERLAY
100
AcDb2dPolyline
 66
     1
 10
0.0
 20
0.0
 30
0.0
 70
     1
 40
0.1524
 41
0.1524
 75
     8
  0
VERTEX
  5
21E
100
AcDbEntity
  8
TOPOVERLAY
100
AcDbVertex
100
AcDb2dVertex
 10
41.8238
 20
-1.28
 30
0.0
 42
1.0
  0
VERTEX
  5
21F
100
AcDbEntity
  8
TOPOVERLAY
100
AcDbVertex
100
AcDb2dVertex
 10
41.9762
 20
-1.28
 30
0.0
 42
1.0
  0
SEQEND
  5
220
100
AcDbEntity
  8
0
  0
POLYLINE
  5
221
100
AcDbEntity
  8
TOPOVERLAY
100
AcDb2dPolyline
 66
     1
 10
0.0
 20
0.0
 30
0.0
 70
     1
 40
0.1524
 41
0.1524
 75
     8
  0
VERTEX
  5
222
100
AcDbEntity
  8
TOPOVERLAY
100
AcDbVertex
100
AcDb2dVertex
 10
41.8238
 20
3.8
 30
0.0
 42
1.0
  0
VERTEX
  5
223
100
AcDbEntity
  8
TOPOVERLAY
100
AcDbVertex
100
AcDb2dVertex
 10
41.9762
 20
3.8
 30
0.0
 42
1.0
  0
SEQEND
  5
224
100
AcDbEntity
  8
0
  0
POLYLINE
  5
225
100
AcDbEntity
  8
TOPOVERLAY
100
AcDb2dPolyline
 66
     1
 10
0.0
 20
0.0
 30
0.0
 40
0.3048
 41
0.3048
 75
     8
  0
VERTEX
  5
226
100
AcDbEntity
  8
TOPOVERLAY
100
AcDbVertex
100
AcDb2dVertex
 10
1.27
 20
1.27
 30
0.0
  0
VERTEX
  5
227
100
AcDbEntity
  8
TOPOVERLAY
100
AcDbVertex
100
AcDb2dVertex
 10
-1.27
 20
1.27
 30
0.0
  0
SEQEND
  5
228
100
AcDbEntity
  8
0
  0
POLYLINE
  5
229
100
AcDbEntity
  8
TOPOVERLAY
100
AcDb2dPolyline
 66
     1
 10
0.0
 20
0.0
 30
0.0
 70
     1
 40
0.1524
 41
0.1524
 75
     8
  0
VERTEX
  5
22A
100
AcDbEntity
  8
TOPOVERLAY
100
AcDbVertex
100
AcDb2dVertex
 10
1.1938
 20
1.27
 30
0.0
 42
1.0
  0
VERTEX
  5
22B
100
AcDbEntity
  8
TOPOVERLAY
100
AcDbVertex
100
AcDb2dVertex
 10
1.3462
 20
1.27
 30
0.0
 42
1.0
  0
SEQEND
  5
22C
100
AcDbEntity
  8
0
  0
POLYLINE
  5
22D
100
AcDbEntity
  8
TOPOVERLAY
100
AcDb2dPolyline
 66
     1
 10
0.0
 20
0.0
 30
0.0
 70
     1
 40
0.1524
 41
0.1524
 75
     8
  0
VERTEX
  5
22E
100
AcDbEntity
  8
TOPOVERLAY
100
AcDbVertex
100
AcDb2dVertex
 10
-1.3462
 20
1.27
 30
0.0
 42
1.0
  0
VERTEX
  5
22F
100
AcDbEntity
  8
TOPOVERLAY
100
AcDbVertex
100
AcDb2dVertex
 10
-1.1938
 20
1.27
 30
0.0
 42
1.0
  0
SEQEND
  5
230
100
AcDbEntity
  8
0
  0
POLYLINE
  5
231
100
AcDbEntity
  8
TOPOVERLAY
100
AcDb2dPolyline
 66
     1
 10
0.0
 20
0.0
 30
0.0
 40
0.3048
 41
0.3048
 75
     8
  0
VERTEX
  5
232
100
AcDbEntity
  8
TOPOVERLAY
100
AcDbVertex
100
AcDb2dVertex
 10
1.27
 20
-1.27
 30
0.0
  0
VERTEX
  5
233
100
AcDbEntity
  8
TOPOVERLAY
100
AcDbVertex
100
AcDb2dVertex
 10
1.27
 20
1.27
 30
0.0
  0
SEQEND
  5
234
100
AcDbEntity
  8
0
  0
POLYLINE
  5
235
100
AcDbEntity
  8
TOPOVERLAY
100
AcDb2dPolyline
 66
     1
 10
0.0
 20
0.0
 30
0.0
 70
     1
 40
0.1524
 41
0.1524
 75
     8
  0
VERTEX
  5
236
100
AcDbEntity
  8
TOPOVERLAY
100
AcDbVertex
100
AcDb2dVertex
 10
1.1938
 20
-1.27
 30
0.0
 42
1.0
  0
VERTEX
  5
237
100
AcDbEntity
  8
TOPOVERLAY
100
AcDbVertex
100
AcDb2dVertex
 10
1.3462
 20
-1.27
 30
0.0
 42
1.0
  0
SEQEND
  5
238
100
AcDbEntity
  8
0
  0
POLYLINE
  5
239
100
AcDbEntity
  8
TOPOVERLAY
100
AcDb2dPolyline
 66
     1
 10
0.0
 20
0.0
 30
0.0
 70
     1
 40
0.1524
 41
0.1524
 75
     8
  0
VERTEX
  5
23A
100
AcDbEntity
  8
TOPOVERLAY
100
AcDbVertex
100
AcDb2dVertex
 10
1.1938
 20
1.27
 30
0.0
 42
1.0
  0
VERTEX
  5
23B
100
AcDbEntity
  8
TOPOVERLAY
100
AcDbVertex
100
AcDb2dVertex
 10
1.3462
 20
1.27
 30
0.0
 42
1.0
  0
SEQEND
  5
23C
100
AcDbEntity
  8
0
  0
POLYLINE
  5
23D
100
AcDbEntity
  8
TOPOVERLAY
100
AcDb2dPolyline
 66
     1
 10
0.0
 20
0.0
 30
0.0
 40
0.3048
 41
0.3048
 75
     8
  0
VERTEX
  5
23E
100
AcDbEntity
  8
TOPOVERLAY
100
AcDbVertex
100
AcDb2dVertex
 10
41.9
 20
-1.28
 30
0.0
  0
VERTEX
  5
23F
100
AcDbEntity
  8
TOPOVERLAY
100
AcDbVertex
100
AcDb2dVertex
 10
-1.26
 20
-1.28
 30
0.0
  0
SEQEND
  5
240
100
AcDbEntity
  8
0
  0
POLYLINE
  5
241
100
AcDbEntity
  8
TOPOVERLAY
100
AcDb2dPolyline
 66
     1
 10
0.0
 20
0.0
 30
0.0
 70
     1
 40
0.1524
 41
0.1524
 75
     8
  0
VERTEX
  5
242
100
AcDbEntity
  8
TOPOVERLAY
100
AcDbVertex
100
AcDb2dVertex
 10
41.8238
 20
-1.28
 30
0.0
 42
1.0
  0
VERTEX
  5
243
100
AcDbEntity
  8
TOPOVERLAY
100
AcDbVertex
100
AcDb2dVertex
 10
41.9762
 20
-1.28
 30
0.0
 42
1.0
  0
SEQEND
  5
244
100
AcDbEntity
  8
0
  0
POLYLINE
  5
245
100
AcDbEntity
  8
TOPOVERLAY
100
AcDb2dPolyline
 66
     1
 10
0.0
 20
0.0
 30
0.0
 70
     1
 40
0.1524
 41
0.1524
 75
     8
  0
VERTEX
  5
246
100
AcDbEntity
  8
TOPOVERLAY
100
AcDbVertex
100
AcDb2dVertex
 10
-1.3362
 20
-1.28
 30
0.0
 42
1.0
  0
VERTEX
  5
247
100
AcDbEntity
  8
TOPOVERLAY
100
AcDbVertex
100
AcDb2dVertex
 10
-1.1838
 20
-1.28
 30
0.0
 42
1.0
  0
SEQEND
  5
248
100
AcDbEntity
  8
0
  0
POLYLINE
  5
249
100
AcDbEntity
  8
TOPOVERLAY
100
AcDb2dPolyline
 66
     1
 10
0.0
 20
0.0
 30
0.0
 40
0.3048
 41
0.3048
 75
     8
  0
VERTEX
  5
24A
100
AcDbEntity
  8
TOPOVERLAY
100
AcDbVertex
100
AcDb2dVertex
 10
41.89
 20
3.81
 30
0.0
  0
VERTEX
  5
24B
100
AcDbEntity
  8
TOPOVERLAY
100
AcDbVertex
100
AcDb2dVertex
 10
-1.27
 20
3.81
 30
0.0
  0
SEQEND
  5
24C
100
AcDbEntity
  8
0
  0
POLYLINE
  5
24D
100
AcDbEntity
  8
TOPOVERLAY
100
AcDb2dPolyline
 66
     1
 10
0.0
 20
0.0
 30
0.0
 70
     1
 40
0.1524
 41
0.1524
 75
     8
  0
VERTEX
  5
24E
100
AcDbEntity
  8
TOPOVERLAY
100
AcDbVertex
100
AcDb2dVertex
 10
41.8138
 20
3.81
 30
0.0
 42
1.0
  0
VERTEX
  5
24F
100
AcDbEntity
  8
TOPOVERLAY
100
AcDbVertex
100
AcDb2dVertex
 10
41.9662
 20
3.81
 30
0.0
 42
1.0
  0
SEQEND
  5
250
100
AcDbEntity
  8
0
  0
POLYLINE
  5
251
100
AcDbEntity
  8
TOPOVERLAY
100
AcDb2dPolyline
 66
     1
 10
0.0
 20
0.0
 30
0.0
 70
     1
 40
0.1524
 41
0.1524
 75
     8
  0
VERTEX
  5
252
100
AcDbEntity
  8
TOPOVERLAY
100
AcDbVertex
100
AcDb2dVertex
 10
-1.3462
 20
3.81
 30
0.0
 42
1.0
  0
VERTEX
  5
253
100
AcDbEntity
  8
TOPOVERLAY
100
AcDbVertex
100
AcDb2dVertex
 10
-1.1938
 20
3.81
 30
0.0
 42
1.0
  0
SEQEND
  5
254
100
AcDbEntity
  8
0
  0
SOLID
  5
255
100
AcDbEntity
  8
TOPSOLDER
100
AcDbTrace
 10
-0.851598
 20
-0.851598
 30
0.0
 11
0.851598
 21
-0.851598
 31
0.0
 12
-0.851598
 22
0.851598
 32
0.0
 13
0.851598
 23
0.851598
 33
0.0
  0
SOLID
  5
256
100
AcDbEntity
  8
BOTTOMSOLDER
100
AcDbTrace
 10
-0.851598
 20
-0.851598
 30
0.0
 11
0.851598
 21
-0.851598
 31
0.0
 12
-0.851598
 22
0.851598
 32
0.0
 13
0.851598
 23
0.851598
 33
0.0
  0
SOLID
  5
257
100
AcDbEntity
  8
MULTILAYER
100
AcDbTrace
 10
-0.749999
 20
-0.749999
 30
0.0
 11
0.749999
 21
-0.749999
 31
0.0
 12
-0.749999
 22
0.749999
 32
0.0
 13
0.749999
 23
0.749999
 33
0.0
  0
POLYLINE
  5
258
100
AcDbEntity
  8
TOPSOLDER
100
AcDb2dPolyline
 66
     1
 10
0.0
 20
0.0
 30
0.0
 70
     1
 40
0.851598
 41
0.851598
 75
     8
  0
VERTEX
  5
259
100
AcDbEntity
  8
TOPSOLDER
100
AcDbVertex
100
AcDb2dVertex
 10
-0.425801
 20
2.54
 30
0.0
 42
1.0
  0
VERTEX
  5
25A
100
AcDbEntity
  8
TOPSOLDER
100
AcDbVertex
100
AcDb2dVertex
 10
0.425801
 20
2.54
 30
0.0
 42
1.0
  0
SEQEND
  5
25B
100
AcDbEntity
  8
0
  0
POLYLINE
  5
25C
100
AcDbEntity
  8
BOTTOMSOLDER
100
AcDb2dPolyline
 66
     1
 10
0.0
 20
0.0
 30
0.0
 70
     1
 40
0.851598
 41
0.851598
 75
     8
  0
VERTEX
  5
25D
100
AcDbEntity
  8
BOTTOMSOLDER
100
AcDbVertex
100
AcDb2dVertex
 10
-0.425801
 20
2.54
 30
0.0
 42
1.0
  0
VERTEX
  5
25E
100
AcDbEntity
  8
BOTTOMSOLDER
100
AcDbVertex
100
AcDb2dVertex
 10
0.425801
 20
2.54
 30
0.0
 42
1.0
  0
SEQEND
  5
25F
100
AcDbEntity
  8
0
  0
POLYLINE
  5
260
100
AcDbEntity
  8
MULTILAYER
100
AcDb2dPolyline
 66
     1
 10
0.0
 20
0.0
 30
0.0
 70
     1
 40
0.749999
 41
0.749999
 75
     8
  0
VERTEX
  5
261
100
AcDbEntity
  8
MULTILAYER
100
AcDbVertex
100
AcDb2dVertex
 10
-0.375001
 20
2.54
 30
0.0
 42
1.0
  0
VERTEX
  5
262
100
AcDbEntity
  8
MULTILAYER
100
AcDbVertex
100
AcDb2dVertex
 10
0.375001
 20
2.54
 30
0.0
 42
1.0
  0
SEQEND
  5
263
100
AcDbEntity
  8
0
  0
POLYLINE
  5
264
100
AcDbEntity
  8
TOPSOLDER
100
AcDb2dPolyline
 66
     1
 10
0.0
 20
0.0
 30
0.0
 70
     1
 40
0.851598
 41
0.851598
 75
     8
  0
VERTEX
  5
265
100
AcDbEntity
  8
TOPSOLDER
100
AcDbVertex
100
AcDb2dVertex
 10
2.114199
 20
0.0
 30
0.0
 42
1.0
  0
VERTEX
  5
266
100
AcDbEntity
  8
TOPSOLDER
100
AcDbVertex
100
AcDb2dVertex
 10
2.965801
 20
0.0
 30
0.0
 42
1.0
  0
SEQEND
  5
267
100
AcDbEntity
  8
0
  0
POLYLINE
  5
268
100
AcDbEntity
  8
BOTTOMSOLDER
100
AcDb2dPolyline
 66
     1
 10
0.0
 20
0.0
 30
0.0
 70
     1
 40
0.851598
 41
0.851598
 75
     8
  0
VERTEX
  5
269
100
AcDbEntity
  8
BOTTOMSOLDER
100
AcDbVertex
100
AcDb2dVertex
 10
2.114199
 20
0.0
 30
0.0
 42
1.0
  0
VERTEX
  5
26A
100
AcDbEntity
  8
BOTTOMSOLDER
100
AcDbVertex
100
AcDb2dVertex
 10
2.965801
 20
0.0
 30
0.0
 42
1.0
  0
SEQEND
  5
26B
100
AcDbEntity
  8
0
  0
POLYLINE
  5
26C
100
AcDbEntity
  8
MULTILAYER
100
AcDb2dPolyline
 66
     1
 10
0.0
 20
0.0
 30
0.0
 70
     1
 40
0.749999
 41
0.749999
 75
     8
  0
VERTEX
  5
26D
100
AcDbEntity
  8
MULTILAYER
100
AcDbVertex
100
AcDb2dVertex
 10
2.164999
 20
0.0
 30
0.0
 42
1.0
  0
VERTEX
  5
26E
100
AcDbEntity
  8
MULTILAYER
100
AcDbVertex
100
AcDb2dVertex
 10
2.915001
 20
0.0
 30
0.0
 42
1.0
  0
SEQEND
  5
26F
100
AcDbEntity
  8
0
  0
POLYLINE
  5
270
100
AcDbEntity
  8
TOPSOLDER
100
AcDb2dPolyline
 66
     1
 10
0.0
 20
0.0
 30
0.0
 70
     1
 40
0.851598
 41
0.851598
 75
     8
  0
VERTEX
  5
271
100
AcDbEntity
  8
TOPSOLDER
100
AcDbVertex
100
AcDb2dVertex
 10
2.114199
 20
2.54
 30
0.0
 42
1.0
  0
VERTEX
  5
272
100
AcDbEntity
  8
TOPSOLDER
100
AcDbVertex
100
AcDb2dVertex
 10
2.965801
 20
2.54
 30
0.0
 42
1.0
  0
SEQEND
  5
273
100
AcDbEntity
  8
0
  0
POLYLINE
  5
274
100
AcDbEntity
  8
BOTTOMSOLDER
100
AcDb2dPolyline
 66
     1
 10
0.0
 20
0.0
 30
0.0
 70
     1
 40
0.851598
 41
0.851598
 75
     8
  0
VERTEX
  5
275
100
AcDbEntity
  8
BOTTOMSOLDER
100
AcDbVertex
100
AcDb2dVertex
 10
2.114199
 20
2.54
 30
0.0
 42
1.0
  0
VERTEX
  5
276
100
AcDbEntity
  8
BOTTOMSOLDER
100
AcDbVertex
100
AcDb2dVertex
 10
2.965801
 20
2.54
 30
0.0
 42
1.0
  0
SEQEND
  5
277
100
AcDbEntity
  8
0
  0
POLYLINE
  5
278
100
AcDbEntity
  8
MULTILAYER
100
AcDb2dPolyline
 66
     1
 10
0.0
 20
0.0
 30
0.0
 70
     1
 40
0.749999
 41
0.749999
 75
     8
  0
VERTEX
  5
279
100
AcDbEntity
  8
MULTILAYER
100
AcDbVertex
100
AcDb2dVertex
 10
2.164999
 20
2.54
 30
0.0
 42
1.0
  0
VERTEX
  5
27A
100
AcDbEntity
  8
MULTILAYER
100
AcDbVertex
100
AcDb2dVertex
 10
2.915001
 20
2.54
 30
0.0
 42
1.0
  0
SEQEND
  5
27B
100
AcDbEntity
  8
0
  0
POLYLINE
  5
27C
100
AcDbEntity
  8
TOPSOLDER
100
AcDb2dPolyline
 66
     1
 10
0.0
 20
0.0
 30
0.0
 70
     1
 40
0.851598
 41
0.851598
 75
     8
  0
VERTEX
  5
27D
100
AcDbEntity
  8
TOPSOLDER
100
AcDbVertex
100
AcDb2dVertex
 10
4.654199
 20
0.0
 30
0.0
 42
1.0
  0
VERTEX
  5
27E
100
AcDbEntity
  8
TOPSOLDER
100
AcDbVertex
100
AcDb2dVertex
 10
5.505801
 20
0.0
 30
0.0
 42
1.0
  0
SEQEND
  5
27F
100
AcDbEntity
  8
0
  0
POLYLINE
  5
280
100
AcDbEntity
  8
BOTTOMSOLDER
100
AcDb2dPolyline
 66
     1
 10
0.0
 20
0.0
 30
0.0
 70
     1
 40
0.851598
 41
0.851598
 75
     8
  0
VERTEX
  5
281
100
AcDbEntity
  8
BOTTOMSOLDER
100
AcDbVertex
100
AcDb2dVertex
 10
4.654199
 20
0.0
 30
0.0
 42
1.0
  0
VERTEX
  5
282
100
AcDbEntity
  8
BOTTOMSOLDER
100
AcDbVertex
100
AcDb2dVertex
 10
5.505801
 20
0.0
 30
0.0
 42
1.0
  0
SEQEND
  5
283
100
AcDbEntity
  8
0
  0
POLYLINE
  5
284
100
AcDbEntity
  8
MULTILAYER
100
AcDb2dPolyline
 66
     1
 10
0.0
 20
0.0
 30
0.0
 70
     1
 40
0.749999
 41
0.749999
 75
     8
  0
VERTEX
  5
285
100
AcDbEntity
  8
MULTILAYER
100
AcDbVertex
100
AcDb2dVertex
 10
4.704999
 20
0.0
 30
0.0
 42
1.0
  0
VERTEX
  5
286
100
AcDbEntity
  8
MULTILAYER
100
AcDbVertex
100
AcDb2dVertex
 10
5.455001
 20
0.0
 30
0.0
 42
1.0
  0
SEQEND
  5
287
100
AcDbEntity
  8
0
  0
POLYLINE
  5
288
100
AcDbEntity
  8
TOPSOLDER
100
AcDb2dPolyline
 66
     1
 10
0.0
 20
0.0
 30
0.0
 70
     1
 40
0.851598
 41
0.851598
 75
     8
  0
VERTEX
  5
289
100
AcDbEntity
  8
TOPSOLDER
100
AcDbVertex
100
AcDb2dVertex
 10
4.654199
 20
2.54
 30
0.0
 42
1.0
  0
VERTEX
  5
28A
100
AcDbEntity
  8
TOPSOLDER
100
AcDbVertex
100
AcDb2dVertex
 10
5.505801
 20
2.54
 30
0.0
 42
1.0
  0
SEQEND
  5
28B
100
AcDbEntity
  8
0
  0
POLYLINE
  5
28C
100
AcDbEntity
  8
BOTTOMSOLDER
100
AcDb2dPolyline
 66
     1
 10
0.0
 20
0.0
 30
0.0
 70
     1
 40
0.851598
 41
0.851598
 75
     8
  0
VERTEX
  5
28D
100
AcDbEntity
  8
BOTTOMSOLDER
100
AcDbVertex
100
AcDb2dVertex
 10
4.654199
 20
2.54
 30
0.0
 42
1.0
  0
VERTEX
  5
28E
100
AcDbEntity
  8
BOTTOMSOLDER
100
AcDbVertex
100
AcDb2dVertex
 10
5.505801
 20
2.54
 30
0.0
 42
1.0
  0
SEQEND
  5
28F
100
AcDbEntity
  8
0
  0
POLYLINE
  5
290
100
AcDbEntity
  8
MULTILAYER
100
AcDb2dPolyline
 66
     1
 10
0.0
 20
0.0
 30
0.0
 70
     1
 40
0.749999
 41
0.749999
 75
     8
  0
VERTEX
  5
291
100
AcDbEntity
  8
MULTILAYER
100
AcDbVertex
100
AcDb2dVertex
 10
4.704999
 20
2.54
 30
0.0
 42
1.0
  0
VERTEX
  5
292
100
AcDbEntity
  8
MULTILAYER
100
AcDbVertex
100
AcDb2dVertex
 10
5.455001
 20
2.54
 30
0.0
 42
1.0
  0
SEQEND
  5
293
100
AcDbEntity
  8
0
  0
POLYLINE
  5
294
100
AcDbEntity
  8
TOPSOLDER
100
AcDb2dPolyline
 66
     1
 10
0.0
 20
0.0
 30
0.0
 70
     1
 40
0.851598
 41
0.851598
 75
     8
  0
VERTEX
  5
295
100
AcDbEntity
  8
TOPSOLDER
100
AcDbVertex
100
AcDb2dVertex
 10
7.194199
 20
0.0
 30
0.0
 42
1.0
  0
VERTEX
  5
296
100
AcDbEntity
  8
TOPSOLDER
100
AcDbVertex
100
AcDb2dVertex
 10
8.045801
 20
0.0
 30
0.0
 42
1.0
  0
SEQEND
  5
297
100
AcDbEntity
  8
0
  0
POLYLINE
  5
298
100
AcDbEntity
  8
BOTTOMSOLDER
100
AcDb2dPolyline
 66
     1
 10
0.0
 20
0.0
 30
0.0
 70
     1
 40
0.851598
 41
0.851598
 75
     8
  0
VERTEX
  5
299
100
AcDbEntity
  8
BOTTOMSOLDER
100
AcDbVertex
100
AcDb2dVertex
 10
7.194199
 20
0.0
 30
0.0
 42
1.0
  0
VERTEX
  5
29A
100
AcDbEntity
  8
BOTTOMSOLDER
100
AcDbVertex
100
AcDb2dVertex
 10
8.045801
 20
0.0
 30
0.0
 42
1.0
  0
SEQEND
  5
29B
100
AcDbEntity
  8
0
  0
POLYLINE
  5
29C
100
AcDbEntity
  8
MULTILAYER
100
AcDb2dPolyline
 66
     1
 10
0.0
 20
0.0
 30
0.0
 70
     1
 40
0.749999
 41
0.749999
 75
     8
  0
VERTEX
  5
29D
100
AcDbEntity
  8
MULTILAYER
100
AcDbVertex
100
AcDb2dVertex
 10
7.244999
 20
0.0
 30
0.0
 42
1.0
  0
VERTEX
  5
29E
100
AcDbEntity
  8
MULTILAYER
100
AcDbVertex
100
AcDb2dVertex
 10
7.995001
 20
0.0
 30
0.0
 42
1.0
  0
SEQEND
  5
29F
100
AcDbEntity
  8
0
  0
POLYLINE
  5
2A0
100
AcDbEntity
  8
TOPSOLDER
100
AcDb2dPolyline
 66
     1
 10
0.0
 20
0.0
 30
0.0
 70
     1
 40
0.851598
 41
0.851598
 75
     8
  0
VERTEX
  5
2A1
100
AcDbEntity
  8
TOPSOLDER
100
AcDbVertex
100
AcDb2dVertex
 10
7.194199
 20
2.54
 30
0.0
 42
1.0
  0
VERTEX
  5
2A2
100
AcDbEntity
  8
TOPSOLDER
100
AcDbVertex
100
AcDb2dVertex
 10
8.045801
 20
2.54
 30
0.0
 42
1.0
  0
SEQEND
  5
2A3
100
AcDbEntity
  8
0
  0
POLYLINE
  5
2A4
100
AcDbEntity
  8
BOTTOMSOLDER
100
AcDb2dPolyline
 66
     1
 10
0.0
 20
0.0
 30
0.0
 70
     1
 40
0.851598
 41
0.851598
 75
     8
  0
VERTEX
  5
2A5
100
AcDbEntity
  8
BOTTOMSOLDER
100
AcDbVertex
100
AcDb2dVertex
 10
7.194199
 20
2.54
 30
0.0
 42
1.0
  0
VERTEX
  5
2A6
100
AcDbEntity
  8
BOTTOMSOLDER
100
AcDbVertex
100
AcDb2dVertex
 10
8.045801
 20
2.54
 30
0.0
 42
1.0
  0
SEQEND
  5
2A7
100
AcDbEntity
  8
0
  0
POLYLINE
  5
2A8
100
AcDbEntity
  8
MULTILAYER
100
AcDb2dPolyline
 66
     1
 10
0.0
 20
0.0
 30
0.0
 70
     1
 40
0.749999
 41
0.749999
 75
     8
  0
VERTEX
  5
2A9
100
AcDbEntity
  8
MULTILAYER
100
AcDbVertex
100
AcDb2dVertex
 10
7.244999
 20
2.54
 30
0.0
 42
1.0
  0
VERTEX
  5
2AA
100
AcDbEntity
  8
MULTILAYER
100
AcDbVertex
100
AcDb2dVertex
 10
7.995001
 20
2.54
 30
0.0
 42
1.0
  0
SEQEND
  5
2AB
100
AcDbEntity
  8
0
  0
POLYLINE
  5
2AC
100
AcDbEntity
  8
TOPSOLDER
100
AcDb2dPolyline
 66
     1
 10
0.0
 20
0.0
 30
0.0
 70
     1
 40
0.851598
 41
0.851598
 75
     8
  0
VERTEX
  5
2AD
100
AcDbEntity
  8
TOPSOLDER
100
AcDbVertex
100
AcDb2dVertex
 10
9.734199
 20
0.0
 30
0.0
 42
1.0
  0
VERTEX
  5
2AE
100
AcDbEntity
  8
TOPSOLDER
100
AcDbVertex
100
AcDb2dVertex
 10
10.585801
 20
0.0
 30
0.0
 42
1.0
  0
SEQEND
  5
2AF
100
AcDbEntity
  8
0
  0
POLYLINE
  5
2B0
100
AcDbEntity
  8
BOTTOMSOLDER
100
AcDb2dPolyline
 66
     1
 10
0.0
 20
0.0
 30
0.0
 70
     1
 40
0.851598
 41
0.851598
 75
     8
  0
VERTEX
  5
2B1
100
AcDbEntity
  8
BOTTOMSOLDER
100
AcDbVertex
100
AcDb2dVertex
 10
9.734199
 20
0.0
 30
0.0
 42
1.0
  0
VERTEX
  5
2B2
100
AcDbEntity
  8
BOTTOMSOLDER
100
AcDbVertex
100
AcDb2dVertex
 10
10.585801
 20
0.0
 30
0.0
 42
1.0
  0
SEQEND
  5
2B3
100
AcDbEntity
  8
0
  0
POLYLINE
  5
2B4
100
AcDbEntity
  8
MULTILAYER
100
AcDb2dPolyline
 66
     1
 10
0.0
 20
0.0
 30
0.0
 70
     1
 40
0.749999
 41
0.749999
 75
     8
  0
VERTEX
  5
2B5
100
AcDbEntity
  8
MULTILAYER
100
AcDbVertex
100
AcDb2dVertex
 10
9.784999
 20
0.0
 30
0.0
 42
1.0
  0
VERTEX
  5
2B6
100
AcDbEntity
  8
MULTILAYER
100
AcDbVertex
100
AcDb2dVertex
 10
10.535001
 20
0.0
 30
0.0
 42
1.0
  0
SEQEND
  5
2B7
100
AcDbEntity
  8
0
  0
POLYLINE
  5
2B8
100
AcDbEntity
  8
TOPSOLDER
100
AcDb2dPolyline
 66
     1
 10
0.0
 20
0.0
 30
0.0
 70
     1
 40
0.851598
 41
0.851598
 75
     8
  0
VERTEX
  5
2B9
100
AcDbEntity
  8
TOPSOLDER
100
AcDbVertex
100
AcDb2dVertex
 10
9.734199
 20
2.54
 30
0.0
 42
1.0
  0
VERTEX
  5
2BA
100
AcDbEntity
  8
TOPSOLDER
100
AcDbVertex
100
AcDb2dVertex
 10
10.585801
 20
2.54
 30
0.0
 42
1.0
  0
SEQEND
  5
2BB
100
AcDbEntity
  8
0
  0
POLYLINE
  5
2BC
100
AcDbEntity
  8
BOTTOMSOLDER
100
AcDb2dPolyline
 66
     1
 10
0.0
 20
0.0
 30
0.0
 70
     1
 40
0.851598
 41
0.851598
 75
     8
  0
VERTEX
  5
2BD
100
AcDbEntity
  8
BOTTOMSOLDER
100
AcDbVertex
100
AcDb2dVertex
 10
9.734199
 20
2.54
 30
0.0
 42
1.0
  0
VERTEX
  5
2BE
100
AcDbEntity
  8
BOTTOMSOLDER
100
AcDbVertex
100
AcDb2dVertex
 10
10.585801
 20
2.54
 30
0.0
 42
1.0
  0
SEQEND
  5
2BF
100
AcDbEntity
  8
0
  0
POLYLINE
  5
2C0
100
AcDbEntity
  8
MULTILAYER
100
AcDb2dPolyline
 66
     1
 10
0.0
 20
0.0
 30
0.0
 70
     1
 40
0.749999
 41
0.749999
 75
     8
  0
VERTEX
  5
2C1
100
AcDbEntity
  8
MULTILAYER
100
AcDbVertex
100
AcDb2dVertex
 10
9.784999
 20
2.54
 30
0.0
 42
1.0
  0
VERTEX
  5
2C2
100
AcDbEntity
  8
MULTILAYER
100
AcDbVertex
100
AcDb2dVertex
 10
10.535001
 20
2.54
 30
0.0
 42
1.0
  0
SEQEND
  5
2C3
100
AcDbEntity
  8
0
  0
POLYLINE
  5
2C4
100
AcDbEntity
  8
TOPSOLDER
100
AcDb2dPolyline
 66
     1
 10
0.0
 20
0.0
 30
0.0
 70
     1
 40
0.851598
 41
0.851598
 75
     8
  0
VERTEX
  5
2C5
100
AcDbEntity
  8
TOPSOLDER
100
AcDbVertex
100
AcDb2dVertex
 10
12.274199
 20
0.0
 30
0.0
 42
1.0
  0
VERTEX
  5
2C6
100
AcDbEntity
  8
TOPSOLDER
100
AcDbVertex
100
AcDb2dVertex
 10
13.125801
 20
0.0
 30
0.0
 42
1.0
  0
SEQEND
  5
2C7
100
AcDbEntity
  8
0
  0
POLYLINE
  5
2C8
100
AcDbEntity
  8
BOTTOMSOLDER
100
AcDb2dPolyline
 66
     1
 10
0.0
 20
0.0
 30
0.0
 70
     1
 40
0.851598
 41
0.851598
 75
     8
  0
VERTEX
  5
2C9
100
AcDbEntity
  8
BOTTOMSOLDER
100
AcDbVertex
100
AcDb2dVertex
 10
12.274199
 20
0.0
 30
0.0
 42
1.0
  0
VERTEX
  5
2CA
100
AcDbEntity
  8
BOTTOMSOLDER
100
AcDbVertex
100
AcDb2dVertex
 10
13.125801
 20
0.0
 30
0.0
 42
1.0
  0
SEQEND
  5
2CB
100
AcDbEntity
  8
0
  0
POLYLINE
  5
2CC
100
AcDbEntity
  8
MULTILAYER
100
AcDb2dPolyline
 66
     1
 10
0.0
 20
0.0
 30
0.0
 70
     1
 40
0.749999
 41
0.749999
 75
     8
  0
VERTEX
  5
2CD
100
AcDbEntity
  8
MULTILAYER
100
AcDbVertex
100
AcDb2dVertex
 10
12.324999
 20
0.0
 30
0.0
 42
1.0
  0
VERTEX
  5
2CE
100
AcDbEntity
  8
MULTILAYER
100
AcDbVertex
100
AcDb2dVertex
 10
13.075001
 20
0.0
 30
0.0
 42
1.0
  0
SEQEND
  5
2CF
100
AcDbEntity
  8
0
  0
POLYLINE
  5
2D0
100
AcDbEntity
  8
TOPSOLDER
100
AcDb2dPolyline
 66
     1
 10
0.0
 20
0.0
 30
0.0
 70
     1
 40
0.851598
 41
0.851598
 75
     8
  0
VERTEX
  5
2D1
100
AcDbEntity
  8
TOPSOLDER
100
AcDbVertex
100
AcDb2dVertex
 10
12.274199
 20
2.54
 30
0.0
 42
1.0
  0
VERTEX
  5
2D2
100
AcDbEntity
  8
TOPSOLDER
100
AcDbVertex
100
AcDb2dVertex
 10
13.125801
 20
2.54
 30
0.0
 42
1.0
  0
SEQEND
  5
2D3
100
AcDbEntity
  8
0
  0
POLYLINE
  5
2D4
100
AcDbEntity
  8
BOTTOMSOLDER
100
AcDb2dPolyline
 66
     1
 10
0.0
 20
0.0
 30
0.0
 70
     1
 40
0.851598
 41
0.851598
 75
     8
  0
VERTEX
  5
2D5
100
AcDbEntity
  8
BOTTOMSOLDER
100
AcDbVertex
100
AcDb2dVertex
 10
12.274199
 20
2.54
 30
0.0
 42
1.0
  0
VERTEX
  5
2D6
100
AcDbEntity
  8
BOTTOMSOLDER
100
AcDbVertex
100
AcDb2dVertex
 10
13.125801
 20
2.54
 30
0.0
 42
1.0
  0
SEQEND
  5
2D7
100
AcDbEntity
  8
0
  0
POLYLINE
  5
2D8
100
AcDbEntity
  8
MULTILAYER
100
AcDb2dPolyline
 66
     1
 10
0.0
 20
0.0
 30
0.0
 70
     1
 40
0.749999
 41
0.749999
 75
     8
  0
VERTEX
  5
2D9
100
AcDbEntity
  8
MULTILAYER
100
AcDbVertex
100
AcDb2dVertex
 10
12.324999
 20
2.54
 30
0.0
 42
1.0
  0
VERTEX
  5
2DA
100
AcDbEntity
  8
MULTILAYER
100
AcDbVertex
100
AcDb2dVertex
 10
13.075001
 20
2.54
 30
0.0
 42
1.0
  0
SEQEND
  5
2DB
100
AcDbEntity
  8
0
  0
POLYLINE
  5
2DC
100
AcDbEntity
  8
TOPSOLDER
100
AcDb2dPolyline
 66
     1
 10
0.0
 20
0.0
 30
0.0
 70
     1
 40
0.851598
 41
0.851598
 75
     8
  0
VERTEX
  5
2DD
100
AcDbEntity
  8
TOPSOLDER
100
AcDbVertex
100
AcDb2dVertex
 10
14.814199
 20
0.0
 30
0.0
 42
1.0
  0
VERTEX
  5
2DE
100
AcDbEntity
  8
TOPSOLDER
100
AcDbVertex
100
AcDb2dVertex
 10
15.665801
 20
0.0
 30
0.0
 42
1.0
  0
SEQEND
  5
2DF
100
AcDbEntity
  8
0
  0
POLYLINE
  5
2E0
100
AcDbEntity
  8
BOTTOMSOLDER
100
AcDb2dPolyline
 66
     1
 10
0.0
 20
0.0
 30
0.0
 70
     1
 40
0.851598
 41
0.851598
 75
     8
  0
VERTEX
  5
2E1
100
AcDbEntity
  8
BOTTOMSOLDER
100
AcDbVertex
100
AcDb2dVertex
 10
14.814199
 20
0.0
 30
0.0
 42
1.0
  0
VERTEX
  5
2E2
100
AcDbEntity
  8
BOTTOMSOLDER
100
AcDbVertex
100
AcDb2dVertex
 10
15.665801
 20
0.0
 30
0.0
 42
1.0
  0
SEQEND
  5
2E3
100
AcDbEntity
  8
0
  0
POLYLINE
  5
2E4
100
AcDbEntity
  8
MULTILAYER
100
AcDb2dPolyline
 66
     1
 10
0.0
 20
0.0
 30
0.0
 70
     1
 40
0.749999
 41
0.749999
 75
     8
  0
VERTEX
  5
2E5
100
AcDbEntity
  8
MULTILAYER
100
AcDbVertex
100
AcDb2dVertex
 10
14.864999
 20
0.0
 30
0.0
 42
1.0
  0
VERTEX
  5
2E6
100
AcDbEntity
  8
MULTILAYER
100
AcDbVertex
100
AcDb2dVertex
 10
15.615001
 20
0.0
 30
0.0
 42
1.0
  0
SEQEND
  5
2E7
100
AcDbEntity
  8
0
  0
POLYLINE
  5
2E8
100
AcDbEntity
  8
TOPSOLDER
100
AcDb2dPolyline
 66
     1
 10
0.0
 20
0.0
 30
0.0
 70
     1
 40
0.851598
 41
0.851598
 75
     8
  0
VERTEX
  5
2E9
100
AcDbEntity
  8
TOPSOLDER
100
AcDbVertex
100
AcDb2dVertex
 10
14.814199
 20
2.54
 30
0.0
 42
1.0
  0
VERTEX
  5
2EA
100
AcDbEntity
  8
TOPSOLDER
100
AcDbVertex
100
AcDb2dVertex
 10
15.665801
 20
2.54
 30
0.0
 42
1.0
  0
SEQEND
  5
2EB
100
AcDbEntity
  8
0
  0
POLYLINE
  5
2EC
100
AcDbEntity
  8
BOTTOMSOLDER
100
AcDb2dPolyline
 66
     1
 10
0.0
 20
0.0
 30
0.0
 70
     1
 40
0.851598
 41
0.851598
 75
     8
  0
VERTEX
  5
2ED
100
AcDbEntity
  8
BOTTOMSOLDER
100
AcDbVertex
100
AcDb2dVertex
 10
14.814199
 20
2.54
 30
0.0
 42
1.0
  0
VERTEX
  5
2EE
100
AcDbEntity
  8
BOTTOMSOLDER
100
AcDbVertex
100
AcDb2dVertex
 10
15.665801
 20
2.54
 30
0.0
 42
1.0
  0
SEQEND
  5
2EF
100
AcDbEntity
  8
0
  0
POLYLINE
  5
2F0
100
AcDbEntity
  8
MULTILAYER
100
AcDb2dPolyline
 66
     1
 10
0.0
 20
0.0
 30
0.0
 70
     1
 40
0.749999
 41
0.749999
 75
     8
  0
VERTEX
  5
2F1
100
AcDbEntity
  8
MULTILAYER
100
AcDbVertex
100
AcDb2dVertex
 10
14.864999
 20
2.54
 30
0.0
 42
1.0
  0
VERTEX
  5
2F2
100
AcDbEntity
  8
MULTILAYER
100
AcDbVertex
100
AcDb2dVertex
 10
15.615001
 20
2.54
 30
0.0
 42
1.0
  0
SEQEND
  5
2F3
100
AcDbEntity
  8
0
  0
POLYLINE
  5
2F4
100
AcDbEntity
  8
TOPSOLDER
100
AcDb2dPolyline
 66
     1
 10
0.0
 20
0.0
 30
0.0
 70
     1
 40
0.851598
 41
0.851598
 75
     8
  0
VERTEX
  5
2F5
100
AcDbEntity
  8
TOPSOLDER
100
AcDbVertex
100
AcDb2dVertex
 10
17.354199
 20
0.0
 30
0.0
 42
1.0
  0
VERTEX
  5
2F6
100
AcDbEntity
  8
TOPSOLDER
100
AcDbVertex
100
AcDb2dVertex
 10
18.205801
 20
0.0
 30
0.0
 42
1.0
  0
SEQEND
  5
2F7
100
AcDbEntity
  8
0
  0
POLYLINE
  5
2F8
100
AcDbEntity
  8
BOTTOMSOLDER
100
AcDb2dPolyline
 66
     1
 10
0.0
 20
0.0
 30
0.0
 70
     1
 40
0.851598
 41
0.851598
 75
     8
  0
VERTEX
  5
2F9
100
AcDbEntity
  8
BOTTOMSOLDER
100
AcDbVertex
100
AcDb2dVertex
 10
17.354199
 20
0.0
 30
0.0
 42
1.0
  0
VERTEX
  5
2FA
100
AcDbEntity
  8
BOTTOMSOLDER
100
AcDbVertex
100
AcDb2dVertex
 10
18.205801
 20
0.0
 30
0.0
 42
1.0
  0
SEQEND
  5
2FB
100
AcDbEntity
  8
0
  0
POLYLINE
  5
2FC
100
AcDbEntity
  8
MULTILAYER
100
AcDb2dPolyline
 66
     1
 10
0.0
 20
0.0
 30
0.0
 70
     1
 40
0.749999
 41
0.749999
 75
     8
  0
VERTEX
  5
2FD
100
AcDbEntity
  8
MULTILAYER
100
AcDbVertex
100
AcDb2dVertex
 10
17.404999
 20
0.0
 30
0.0
 42
1.0
  0
VERTEX
  5
2FE
100
AcDbEntity
  8
MULTILAYER
100
AcDbVertex
100
AcDb2dVertex
 10
18.155001
 20
0.0
 30
0.0
 42
1.0
  0
SEQEND
  5
2FF
100
AcDbEntity
  8
0
  0
POLYLINE
  5
300
100
AcDbEntity
  8
TOPSOLDER
100
AcDb2dPolyline
 66
     1
 10
0.0
 20
0.0
 30
0.0
 70
     1
 40
0.851598
 41
0.851598
 75
     8
  0
VERTEX
  5
301
100
AcDbEntity
  8
TOPSOLDER
100
AcDbVertex
100
AcDb2dVertex
 10
17.354199
 20
2.54
 30
0.0
 42
1.0
  0
VERTEX
  5
302
100
AcDbEntity
  8
TOPSOLDER
100
AcDbVertex
100
AcDb2dVertex
 10
18.205801
 20
2.54
 30
0.0
 42
1.0
  0
SEQEND
  5
303
100
AcDbEntity
  8
0
  0
POLYLINE
  5
304
100
AcDbEntity
  8
BOTTOMSOLDER
100
AcDb2dPolyline
 66
     1
 10
0.0
 20
0.0
 30
0.0
 70
     1
 40
0.851598
 41
0.851598
 75
     8
  0
VERTEX
  5
305
100
AcDbEntity
  8
BOTTOMSOLDER
100
AcDbVertex
100
AcDb2dVertex
 10
17.354199
 20
2.54
 30
0.0
 42
1.0
  0
VERTEX
  5
306
100
AcDbEntity
  8
BOTTOMSOLDER
100
AcDbVertex
100
AcDb2dVertex
 10
18.205801
 20
2.54
 30
0.0
 42
1.0
  0
SEQEND
  5
307
100
AcDbEntity
  8
0
  0
POLYLINE
  5
308
100
AcDbEntity
  8
MULTILAYER
100
AcDb2dPolyline
 66
     1
 10
0.0
 20
0.0
 30
0.0
 70
     1
 40
0.749999
 41
0.749999
 75
     8
  0
VERTEX
  5
309
100
AcDbEntity
  8
MULTILAYER
100
AcDbVertex
100
AcDb2dVertex
 10
17.404999
 20
2.54
 30
0.0
 42
1.0
  0
VERTEX
  5
30A
100
AcDbEntity
  8
MULTILAYER
100
AcDbVertex
100
AcDb2dVertex
 10
18.155001
 20
2.54
 30
0.0
 42
1.0
  0
SEQEND
  5
30B
100
AcDbEntity
  8
0
  0
POLYLINE
  5
30C
100
AcDbEntity
  8
TOPSOLDER
100
AcDb2dPolyline
 66
     1
 10
0.0
 20
0.0
 30
0.0
 70
     1
 40
0.851598
 41
0.851598
 75
     8
  0
VERTEX
  5
30D
100
AcDbEntity
  8
TOPSOLDER
100
AcDbVertex
100
AcDb2dVertex
 10
19.894199
 20
0.0
 30
0.0
 42
1.0
  0
VERTEX
  5
30E
100
AcDbEntity
  8
TOPSOLDER
100
AcDbVertex
100
AcDb2dVertex
 10
20.745801
 20
0.0
 30
0.0
 42
1.0
  0
SEQEND
  5
30F
100
AcDbEntity
  8
0
  0
POLYLINE
  5
310
100
AcDbEntity
  8
BOTTOMSOLDER
100
AcDb2dPolyline
 66
     1
 10
0.0
 20
0.0
 30
0.0
 70
     1
 40
0.851598
 41
0.851598
 75
     8
  0
VERTEX
  5
311
100
AcDbEntity
  8
BOTTOMSOLDER
100
AcDbVertex
100
AcDb2dVertex
 10
19.894199
 20
0.0
 30
0.0
 42
1.0
  0
VERTEX
  5
312
100
AcDbEntity
  8
BOTTOMSOLDER
100
AcDbVertex
100
AcDb2dVertex
 10
20.745801
 20
0.0
 30
0.0
 42
1.0
  0
SEQEND
  5
313
100
AcDbEntity
  8
0
  0
POLYLINE
  5
314
100
AcDbEntity
  8
MULTILAYER
100
AcDb2dPolyline
 66
     1
 10
0.0
 20
0.0
 30
0.0
 70
     1
 40
0.749999
 41
0.749999
 75
     8
  0
VERTEX
  5
315
100
AcDbEntity
  8
MULTILAYER
100
AcDbVertex
100
AcDb2dVertex
 10
19.944999
 20
0.0
 30
0.0
 42
1.0
  0
VERTEX
  5
316
100
AcDbEntity
  8
MULTILAYER
100
AcDbVertex
100
AcDb2dVertex
 10
20.695001
 20
0.0
 30
0.0
 42
1.0
  0
SEQEND
  5
317
100
AcDbEntity
  8
0
  0
POLYLINE
  5
318
100
AcDbEntity
  8
TOPSOLDER
100
AcDb2dPolyline
 66
     1
 10
0.0
 20
0.0
 30
0.0
 70
     1
 40
0.851598
 41
0.851598
 75
     8
  0
VERTEX
  5
319
100
AcDbEntity
  8
TOPSOLDER
100
AcDbVertex
100
AcDb2dVertex
 10
19.894199
 20
2.54
 30
0.0
 42
1.0
  0
VERTEX
  5
31A
100
AcDbEntity
  8
TOPSOLDER
100
AcDbVertex
100
AcDb2dVertex
 10
20.745801
 20
2.54
 30
0.0
 42
1.0
  0
SEQEND
  5
31B
100
AcDbEntity
  8
0
  0
POLYLINE
  5
31C
100
AcDbEntity
  8
BOTTOMSOLDER
100
AcDb2dPolyline
 66
     1
 10
0.0
 20
0.0
 30
0.0
 70
     1
 40
0.851598
 41
0.851598
 75
     8
  0
VERTEX
  5
31D
100
AcDbEntity
  8
BOTTOMSOLDER
100
AcDbVertex
100
AcDb2dVertex
 10
19.894199
 20
2.54
 30
0.0
 42
1.0
  0
VERTEX
  5
31E
100
AcDbEntity
  8
BOTTOMSOLDER
100
AcDbVertex
100
AcDb2dVertex
 10
20.745801
 20
2.54
 30
0.0
 42
1.0
  0
SEQEND
  5
31F
100
AcDbEntity
  8
0
  0
POLYLINE
  5
320
100
AcDbEntity
  8
MULTILAYER
100
AcDb2dPolyline
 66
     1
 10
0.0
 20
0.0
 30
0.0
 70
     1
 40
0.749999
 41
0.749999
 75
     8
  0
VERTEX
  5
321
100
AcDbEntity
  8
MULTILAYER
100
AcDbVertex
100
AcDb2dVertex
 10
19.944999
 20
2.54
 30
0.0
 42
1.0
  0
VERTEX
  5
322
100
AcDbEntity
  8
MULTILAYER
100
AcDbVertex
100
AcDb2dVertex
 10
20.695001
 20
2.54
 30
0.0
 42
1.0
  0
SEQEND
  5
323
100
AcDbEntity
  8
0
  0
POLYLINE
  5
324
100
AcDbEntity
  8
TOPSOLDER
100
AcDb2dPolyline
 66
     1
 10
0.0
 20
0.0
 30
0.0
 70
     1
 40
0.851598
 41
0.851598
 75
     8
  0
VERTEX
  5
325
100
AcDbEntity
  8
TOPSOLDER
100
AcDbVertex
100
AcDb2dVertex
 10
22.434199
 20
0.0
 30
0.0
 42
1.0
  0
VERTEX
  5
326
100
AcDbEntity
  8
TOPSOLDER
100
AcDbVertex
100
AcDb2dVertex
 10
23.285801
 20
0.0
 30
0.0
 42
1.0
  0
SEQEND
  5
327
100
AcDbEntity
  8
0
  0
POLYLINE
  5
328
100
AcDbEntity
  8
BOTTOMSOLDER
100
AcDb2dPolyline
 66
     1
 10
0.0
 20
0.0
 30
0.0
 70
     1
 40
0.851598
 41
0.851598
 75
     8
  0
VERTEX
  5
329
100
AcDbEntity
  8
BOTTOMSOLDER
100
AcDbVertex
100
AcDb2dVertex
 10
22.434199
 20
0.0
 30
0.0
 42
1.0
  0
VERTEX
  5
32A
100
AcDbEntity
  8
BOTTOMSOLDER
100
AcDbVertex
100
AcDb2dVertex
 10
23.285801
 20
0.0
 30
0.0
 42
1.0
  0
SEQEND
  5
32B
100
AcDbEntity
  8
0
  0
POLYLINE
  5
32C
100
AcDbEntity
  8
MULTILAYER
100
AcDb2dPolyline
 66
     1
 10
0.0
 20
0.0
 30
0.0
 70
     1
 40
0.749999
 41
0.749999
 75
     8
  0
VERTEX
  5
32D
100
AcDbEntity
  8
MULTILAYER
100
AcDbVertex
100
AcDb2dVertex
 10
22.484999
 20
0.0
 30
0.0
 42
1.0
  0
VERTEX
  5
32E
100
AcDbEntity
  8
MULTILAYER
100
AcDbVertex
100
AcDb2dVertex
 10
23.235001
 20
0.0
 30
0.0
 42
1.0
  0
SEQEND
  5
32F
100
AcDbEntity
  8
0
  0
POLYLINE
  5
330
100
AcDbEntity
  8
TOPSOLDER
100
AcDb2dPolyline
 66
     1
 10
0.0
 20
0.0
 30
0.0
 70
     1
 40
0.851598
 41
0.851598
 75
     8
  0
VERTEX
  5
331
100
AcDbEntity
  8
TOPSOLDER
100
AcDbVertex
100
AcDb2dVertex
 10
22.434199
 20
2.54
 30
0.0
 42
1.0
  0
VERTEX
  5
332
100
AcDbEntity
  8
TOPSOLDER
100
AcDbVertex
100
AcDb2dVertex
 10
23.285801
 20
2.54
 30
0.0
 42
1.0
  0
SEQEND
  5
333
100
AcDbEntity
  8
0
  0
POLYLINE
  5
334
100
AcDbEntity
  8
BOTTOMSOLDER
100
AcDb2dPolyline
 66
     1
 10
0.0
 20
0.0
 30
0.0
 70
     1
 40
0.851598
 41
0.851598
 75
     8
  0
VERTEX
  5
335
100
AcDbEntity
  8
BOTTOMSOLDER
100
AcDbVertex
100
AcDb2dVertex
 10
22.434199
 20
2.54
 30
0.0
 42
1.0
  0
VERTEX
  5
336
100
AcDbEntity
  8
BOTTOMSOLDER
100
AcDbVertex
100
AcDb2dVertex
 10
23.285801
 20
2.54
 30
0.0
 42
1.0
  0
SEQEND
  5
337
100
AcDbEntity
  8
0
  0
POLYLINE
  5
338
100
AcDbEntity
  8
MULTILAYER
100
AcDb2dPolyline
 66
     1
 10
0.0
 20
0.0
 30
0.0
 70
     1
 40
0.749999
 41
0.749999
 75
     8
  0
VERTEX
  5
339
100
AcDbEntity
  8
MULTILAYER
100
AcDbVertex
100
AcDb2dVertex
 10
22.484999
 20
2.54
 30
0.0
 42
1.0
  0
VERTEX
  5
33A
100
AcDbEntity
  8
MULTILAYER
100
AcDbVertex
100
AcDb2dVertex
 10
23.235001
 20
2.54
 30
0.0
 42
1.0
  0
SEQEND
  5
33B
100
AcDbEntity
  8
0
  0
POLYLINE
  5
33C
100
AcDbEntity
  8
TOPSOLDER
100
AcDb2dPolyline
 66
     1
 10
0.0
 20
0.0
 30
0.0
 70
     1
 40
0.851598
 41
0.851598
 75
     8
  0
VERTEX
  5
33D
100
AcDbEntity
  8
TOPSOLDER
100
AcDbVertex
100
AcDb2dVertex
 10
24.974199
 20
0.0
 30
0.0
 42
1.0
  0
VERTEX
  5
33E
100
AcDbEntity
  8
TOPSOLDER
100
AcDbVertex
100
AcDb2dVertex
 10
25.825801
 20
0.0
 30
0.0
 42
1.0
  0
SEQEND
  5
33F
100
AcDbEntity
  8
0
  0
POLYLINE
  5
340
100
AcDbEntity
  8
BOTTOMSOLDER
100
AcDb2dPolyline
 66
     1
 10
0.0
 20
0.0
 30
0.0
 70
     1
 40
0.851598
 41
0.851598
 75
     8
  0
VERTEX
  5
341
100
AcDbEntity
  8
BOTTOMSOLDER
100
AcDbVertex
100
AcDb2dVertex
 10
24.974199
 20
0.0
 30
0.0
 42
1.0
  0
VERTEX
  5
342
100
AcDbEntity
  8
BOTTOMSOLDER
100
AcDbVertex
100
AcDb2dVertex
 10
25.825801
 20
0.0
 30
0.0
 42
1.0
  0
SEQEND
  5
343
100
AcDbEntity
  8
0
  0
POLYLINE
  5
344
100
AcDbEntity
  8
MULTILAYER
100
AcDb2dPolyline
 66
     1
 10
0.0
 20
0.0
 30
0.0
 70
     1
 40
0.749999
 41
0.749999
 75
     8
  0
VERTEX
  5
345
100
AcDbEntity
  8
MULTILAYER
100
AcDbVertex
100
AcDb2dVertex
 10
25.024999
 20
0.0
 30
0.0
 42
1.0
  0
VERTEX
  5
346
100
AcDbEntity
  8
MULTILAYER
100
AcDbVertex
100
AcDb2dVertex
 10
25.775001
 20
0.0
 30
0.0
 42
1.0
  0
SEQEND
  5
347
100
AcDbEntity
  8
0
  0
POLYLINE
  5
348
100
AcDbEntity
  8
TOPSOLDER
100
AcDb2dPolyline
 66
     1
 10
0.0
 20
0.0
 30
0.0
 70
     1
 40
0.851598
 41
0.851598
 75
     8
  0
VERTEX
  5
349
100
AcDbEntity
  8
TOPSOLDER
100
AcDbVertex
100
AcDb2dVertex
 10
24.974199
 20
2.54
 30
0.0
 42
1.0
  0
VERTEX
  5
34A
100
AcDbEntity
  8
TOPSOLDER
100
AcDbVertex
100
AcDb2dVertex
 10
25.825801
 20
2.54
 30
0.0
 42
1.0
  0
SEQEND
  5
34B
100
AcDbEntity
  8
0
  0
POLYLINE
  5
34C
100
AcDbEntity
  8
BOTTOMSOLDER
100
AcDb2dPolyline
 66
     1
 10
0.0
 20
0.0
 30
0.0
 70
     1
 40
0.851598
 41
0.851598
 75
     8
  0
VERTEX
  5
34D
100
AcDbEntity
  8
BOTTOMSOLDER
100
AcDbVertex
100
AcDb2dVertex
 10
24.974199
 20
2.54
 30
0.0
 42
1.0
  0
VERTEX
  5
34E
100
AcDbEntity
  8
BOTTOMSOLDER
100
AcDbVertex
100
AcDb2dVertex
 10
25.825801
 20
2.54
 30
0.0
 42
1.0
  0
SEQEND
  5
34F
100
AcDbEntity
  8
0
  0
POLYLINE
  5
350
100
AcDbEntity
  8
MULTILAYER
100
AcDb2dPolyline
 66
     1
 10
0.0
 20
0.0
 30
0.0
 70
     1
 40
0.749999
 41
0.749999
 75
     8
  0
VERTEX
  5
351
100
AcDbEntity
  8
MULTILAYER
100
AcDbVertex
100
AcDb2dVertex
 10
25.024999
 20
2.54
 30
0.0
 42
1.0
  0
VERTEX
  5
352
100
AcDbEntity
  8
MULTILAYER
100
AcDbVertex
100
AcDb2dVertex
 10
25.775001
 20
2.54
 30
0.0
 42
1.0
  0
SEQEND
  5
353
100
AcDbEntity
  8
0
  0
POLYLINE
  5
354
100
AcDbEntity
  8
TOPSOLDER
100
AcDb2dPolyline
 66
     1
 10
0.0
 20
0.0
 30
0.0
 70
     1
 40
0.851598
 41
0.851598
 75
     8
  0
VERTEX
  5
355
100
AcDbEntity
  8
TOPSOLDER
100
AcDbVertex
100
AcDb2dVertex
 10
27.514199
 20
0.0
 30
0.0
 42
1.0
  0
VERTEX
  5
356
100
AcDbEntity
  8
TOPSOLDER
100
AcDbVertex
100
AcDb2dVertex
 10
28.365801
 20
0.0
 30
0.0
 42
1.0
  0
SEQEND
  5
357
100
AcDbEntity
  8
0
  0
POLYLINE
  5
358
100
AcDbEntity
  8
BOTTOMSOLDER
100
AcDb2dPolyline
 66
     1
 10
0.0
 20
0.0
 30
0.0
 70
     1
 40
0.851598
 41
0.851598
 75
     8
  0
VERTEX
  5
359
100
AcDbEntity
  8
BOTTOMSOLDER
100
AcDbVertex
100
AcDb2dVertex
 10
27.514199
 20
0.0
 30
0.0
 42
1.0
  0
VERTEX
  5
35A
100
AcDbEntity
  8
BOTTOMSOLDER
100
AcDbVertex
100
AcDb2dVertex
 10
28.365801
 20
0.0
 30
0.0
 42
1.0
  0
SEQEND
  5
35B
100
AcDbEntity
  8
0
  0
POLYLINE
  5
35C
100
AcDbEntity
  8
MULTILAYER
100
AcDb2dPolyline
 66
     1
 10
0.0
 20
0.0
 30
0.0
 70
     1
 40
0.749999
 41
0.749999
 75
     8
  0
VERTEX
  5
35D
100
AcDbEntity
  8
MULTILAYER
100
AcDbVertex
100
AcDb2dVertex
 10
27.564999
 20
0.0
 30
0.0
 42
1.0
  0
VERTEX
  5
35E
100
AcDbEntity
  8
MULTILAYER
100
AcDbVertex
100
AcDb2dVertex
 10
28.315001
 20
0.0
 30
0.0
 42
1.0
  0
SEQEND
  5
35F
100
AcDbEntity
  8
0
  0
POLYLINE
  5
360
100
AcDbEntity
  8
TOPSOLDER
100
AcDb2dPolyline
 66
     1
 10
0.0
 20
0.0
 30
0.0
 70
     1
 40
0.851598
 41
0.851598
 75
     8
  0
VERTEX
  5
361
100
AcDbEntity
  8
TOPSOLDER
100
AcDbVertex
100
AcDb2dVertex
 10
27.514199
 20
2.54
 30
0.0
 42
1.0
  0
VERTEX
  5
362
100
AcDbEntity
  8
TOPSOLDER
100
AcDbVertex
100
AcDb2dVertex
 10
28.365801
 20
2.54
 30
0.0
 42
1.0
  0
SEQEND
  5
363
100
AcDbEntity
  8
0
  0
POLYLINE
  5
364
100
AcDbEntity
  8
BOTTOMSOLDER
100
AcDb2dPolyline
 66
     1
 10
0.0
 20
0.0
 30
0.0
 70
     1
 40
0.851598
 41
0.851598
 75
     8
  0
VERTEX
  5
365
100
AcDbEntity
  8
BOTTOMSOLDER
100
AcDbVertex
100
AcDb2dVertex
 10
27.514199
 20
2.54
 30
0.0
 42
1.0
  0
VERTEX
  5
366
100
AcDbEntity
  8
BOTTOMSOLDER
100
AcDbVertex
100
AcDb2dVertex
 10
28.365801
 20
2.54
 30
0.0
 42
1.0
  0
SEQEND
  5
367
100
AcDbEntity
  8
0
  0
POLYLINE
  5
368
100
AcDbEntity
  8
MULTILAYER
100
AcDb2dPolyline
 66
     1
 10
0.0
 20
0.0
 30
0.0
 70
     1
 40
0.749999
 41
0.749999
 75
     8
  0
VERTEX
  5
369
100
AcDbEntity
  8
MULTILAYER
100
AcDbVertex
100
AcDb2dVertex
 10
27.564999
 20
2.54
 30
0.0
 42
1.0
  0
VERTEX
  5
36A
100
AcDbEntity
  8
MULTILAYER
100
AcDbVertex
100
AcDb2dVertex
 10
28.315001
 20
2.54
 30
0.0
 42
1.0
  0
SEQEND
  5
36B
100
AcDbEntity
  8
0
  0
POLYLINE
  5
36C
100
AcDbEntity
  8
TOPSOLDER
100
AcDb2dPolyline
 66
     1
 10
0.0
 20
0.0
 30
0.0
 70
     1
 40
0.851598
 41
0.851598
 75
     8
  0
VERTEX
  5
36D
100
AcDbEntity
  8
TOPSOLDER
100
AcDbVertex
100
AcDb2dVertex
 10
30.054199
 20
0.0
 30
0.0
 42
1.0
  0
VERTEX
  5
36E
100
AcDbEntity
  8
TOPSOLDER
100
AcDbVertex
100
AcDb2dVertex
 10
30.905801
 20
0.0
 30
0.0
 42
1.0
  0
SEQEND
  5
36F
100
AcDbEntity
  8
0
  0
POLYLINE
  5
370
100
AcDbEntity
  8
BOTTOMSOLDER
100
AcDb2dPolyline
 66
     1
 10
0.0
 20
0.0
 30
0.0
 70
     1
 40
0.851598
 41
0.851598
 75
     8
  0
VERTEX
  5
371
100
AcDbEntity
  8
BOTTOMSOLDER
100
AcDbVertex
100
AcDb2dVertex
 10
30.054199
 20
0.0
 30
0.0
 42
1.0
  0
VERTEX
  5
372
100
AcDbEntity
  8
BOTTOMSOLDER
100
AcDbVertex
100
AcDb2dVertex
 10
30.905801
 20
0.0
 30
0.0
 42
1.0
  0
SEQEND
  5
373
100
AcDbEntity
  8
0
  0
POLYLINE
  5
374
100
AcDbEntity
  8
MULTILAYER
100
AcDb2dPolyline
 66
     1
 10
0.0
 20
0.0
 30
0.0
 70
     1
 40
0.749999
 41
0.749999
 75
     8
  0
VERTEX
  5
375
100
AcDbEntity
  8
MULTILAYER
100
AcDbVertex
100
AcDb2dVertex
 10
30.104999
 20
0.0
 30
0.0
 42
1.0
  0
VERTEX
  5
376
100
AcDbEntity
  8
MULTILAYER
100
AcDbVertex
100
AcDb2dVertex
 10
30.855001
 20
0.0
 30
0.0
 42
1.0
  0
SEQEND
  5
377
100
AcDbEntity
  8
0
  0
POLYLINE
  5
378
100
AcDbEntity
  8
TOPSOLDER
100
AcDb2dPolyline
 66
     1
 10
0.0
 20
0.0
 30
0.0
 70
     1
 40
0.851598
 41
0.851598
 75
     8
  0
VERTEX
  5
379
100
AcDbEntity
  8
TOPSOLDER
100
AcDbVertex
100
AcDb2dVertex
 10
30.054199
 20
2.54
 30
0.0
 42
1.0
  0
VERTEX
  5
37A
100
AcDbEntity
  8
TOPSOLDER
100
AcDbVertex
100
AcDb2dVertex
 10
30.905801
 20
2.54
 30
0.0
 42
1.0
  0
SEQEND
  5
37B
100
AcDbEntity
  8
0
  0
POLYLINE
  5
37C
100
AcDbEntity
  8
BOTTOMSOLDER
100
AcDb2dPolyline
 66
     1
 10
0.0
 20
0.0
 30
0.0
 70
     1
 40
0.851598
 41
0.851598
 75
     8
  0
VERTEX
  5
37D
100
AcDbEntity
  8
BOTTOMSOLDER
100
AcDbVertex
100
AcDb2dVertex
 10
30.054199
 20
2.54
 30
0.0
 42
1.0
  0
VERTEX
  5
37E
100
AcDbEntity
  8
BOTTOMSOLDER
100
AcDbVertex
100
AcDb2dVertex
 10
30.905801
 20
2.54
 30
0.0
 42
1.0
  0
SEQEND
  5
37F
100
AcDbEntity
  8
0
  0
POLYLINE
  5
380
100
AcDbEntity
  8
MULTILAYER
100
AcDb2dPolyline
 66
     1
 10
0.0
 20
0.0
 30
0.0
 70
     1
 40
0.749999
 41
0.749999
 75
     8
  0
VERTEX
  5
381
100
AcDbEntity
  8
MULTILAYER
100
AcDbVertex
100
AcDb2dVertex
 10
30.104999
 20
2.54
 30
0.0
 42
1.0
  0
VERTEX
  5
382
100
AcDbEntity
  8
MULTILAYER
100
AcDbVertex
100
AcDb2dVertex
 10
30.855001
 20
2.54
 30
0.0
 42
1.0
  0
SEQEND
  5
383
100
AcDbEntity
  8
0
  0
POLYLINE
  5
384
100
AcDbEntity
  8
TOPSOLDER
100
AcDb2dPolyline
 66
     1
 10
0.0
 20
0.0
 30
0.0
 70
     1
 40
0.851598
 41
0.851598
 75
     8
  0
VERTEX
  5
385
100
AcDbEntity
  8
TOPSOLDER
100
AcDbVertex
100
AcDb2dVertex
 10
32.594199
 20
0.0
 30
0.0
 42
1.0
  0
VERTEX
  5
386
100
AcDbEntity
  8
TOPSOLDER
100
AcDbVertex
100
AcDb2dVertex
 10
33.445801
 20
0.0
 30
0.0
 42
1.0
  0
SEQEND
  5
387
100
AcDbEntity
  8
0
  0
POLYLINE
  5
388
100
AcDbEntity
  8
BOTTOMSOLDER
100
AcDb2dPolyline
 66
     1
 10
0.0
 20
0.0
 30
0.0
 70
     1
 40
0.851598
 41
0.851598
 75
     8
  0
VERTEX
  5
389
100
AcDbEntity
  8
BOTTOMSOLDER
100
AcDbVertex
100
AcDb2dVertex
 10
32.594199
 20
0.0
 30
0.0
 42
1.0
  0
VERTEX
  5
38A
100
AcDbEntity
  8
BOTTOMSOLDER
100
AcDbVertex
100
AcDb2dVertex
 10
33.445801
 20
0.0
 30
0.0
 42
1.0
  0
SEQEND
  5
38B
100
AcDbEntity
  8
0
  0
POLYLINE
  5
38C
100
AcDbEntity
  8
MULTILAYER
100
AcDb2dPolyline
 66
     1
 10
0.0
 20
0.0
 30
0.0
 70
     1
 40
0.749999
 41
0.749999
 75
     8
  0
VERTEX
  5
38D
100
AcDbEntity
  8
MULTILAYER
100
AcDbVertex
100
AcDb2dVertex
 10
32.644999
 20
0.0
 30
0.0
 42
1.0
  0
VERTEX
  5
38E
100
AcDbEntity
  8
MULTILAYER
100
AcDbVertex
100
AcDb2dVertex
 10
33.395001
 20
0.0
 30
0.0
 42
1.0
  0
SEQEND
  5
38F
100
AcDbEntity
  8
0
  0
POLYLINE
  5
390
100
AcDbEntity
  8
TOPSOLDER
100
AcDb2dPolyline
 66
     1
 10
0.0
 20
0.0
 30
0.0
 70
     1
 40
0.851598
 41
0.851598
 75
     8
  0
VERTEX
  5
391
100
AcDbEntity
  8
TOPSOLDER
100
AcDbVertex
100
AcDb2dVertex
 10
32.594199
 20
2.54
 30
0.0
 42
1.0
  0
VERTEX
  5
392
100
AcDbEntity
  8
TOPSOLDER
100
AcDbVertex
100
AcDb2dVertex
 10
33.445801
 20
2.54
 30
0.0
 42
1.0
  0
SEQEND
  5
393
100
AcDbEntity
  8
0
  0
POLYLINE
  5
394
100
AcDbEntity
  8
BOTTOMSOLDER
100
AcDb2dPolyline
 66
     1
 10
0.0
 20
0.0
 30
0.0
 70
     1
 40
0.851598
 41
0.851598
 75
     8
  0
VERTEX
  5
395
100
AcDbEntity
  8
BOTTOMSOLDER
100
AcDbVertex
100
AcDb2dVertex
 10
32.594199
 20
2.54
 30
0.0
 42
1.0
  0
VERTEX
  5
396
100
AcDbEntity
  8
BOTTOMSOLDER
100
AcDbVertex
100
AcDb2dVertex
 10
33.445801
 20
2.54
 30
0.0
 42
1.0
  0
SEQEND
  5
397
100
AcDbEntity
  8
0
  0
POLYLINE
  5
398
100
AcDbEntity
  8
MULTILAYER
100
AcDb2dPolyline
 66
     1
 10
0.0
 20
0.0
 30
0.0
 70
     1
 40
0.749999
 41
0.749999
 75
     8
  0
VERTEX
  5
399
100
AcDbEntity
  8
MULTILAYER
100
AcDbVertex
100
AcDb2dVertex
 10
32.644999
 20
2.54
 30
0.0
 42
1.0
  0
VERTEX
  5
39A
100
AcDbEntity
  8
MULTILAYER
100
AcDbVertex
100
AcDb2dVertex
 10
33.395001
 20
2.54
 30
0.0
 42
1.0
  0
SEQEND
  5
39B
100
AcDbEntity
  8
0
  0
POLYLINE
  5
39C
100
AcDbEntity
  8
TOPSOLDER
100
AcDb2dPolyline
 66
     1
 10
0.0
 20
0.0
 30
0.0
 70
     1
 40
0.851598
 41
0.851598
 75
     8
  0
VERTEX
  5
39D
100
AcDbEntity
  8
TOPSOLDER
100
AcDbVertex
100
AcDb2dVertex
 10
35.134199
 20
0.0
 30
0.0
 42
1.0
  0
VERTEX
  5
39E
100
AcDbEntity
  8
TOPSOLDER
100
AcDbVertex
100
AcDb2dVertex
 10
35.985801
 20
0.0
 30
0.0
 42
1.0
  0
SEQEND
  5
39F
100
AcDbEntity
  8
0
  0
POLYLINE
  5
3A0
100
AcDbEntity
  8
BOTTOMSOLDER
100
AcDb2dPolyline
 66
     1
 10
0.0
 20
0.0
 30
0.0
 70
     1
 40
0.851598
 41
0.851598
 75
     8
  0
VERTEX
  5
3A1
100
AcDbEntity
  8
BOTTOMSOLDER
100
AcDbVertex
100
AcDb2dVertex
 10
35.134199
 20
0.0
 30
0.0
 42
1.0
  0
VERTEX
  5
3A2
100
AcDbEntity
  8
BOTTOMSOLDER
100
AcDbVertex
100
AcDb2dVertex
 10
35.985801
 20
0.0
 30
0.0
 42
1.0
  0
SEQEND
  5
3A3
100
AcDbEntity
  8
0
  0
POLYLINE
  5
3A4
100
AcDbEntity
  8
MULTILAYER
100
AcDb2dPolyline
 66
     1
 10
0.0
 20
0.0
 30
0.0
 70
     1
 40
0.749999
 41
0.749999
 75
     8
  0
VERTEX
  5
3A5
100
AcDbEntity
  8
MULTILAYER
100
AcDbVertex
100
AcDb2dVertex
 10
35.184999
 20
0.0
 30
0.0
 42
1.0
  0
VERTEX
  5
3A6
100
AcDbEntity
  8
MULTILAYER
100
AcDbVertex
100
AcDb2dVertex
 10
35.935001
 20
0.0
 30
0.0
 42
1.0
  0
SEQEND
  5
3A7
100
AcDbEntity
  8
0
  0
POLYLINE
  5
3A8
100
AcDbEntity
  8
TOPSOLDER
100
AcDb2dPolyline
 66
     1
 10
0.0
 20
0.0
 30
0.0
 70
     1
 40
0.851598
 41
0.851598
 75
     8
  0
VERTEX
  5
3A9
100
AcDbEntity
  8
TOPSOLDER
100
AcDbVertex
100
AcDb2dVertex
 10
35.134199
 20
2.54
 30
0.0
 42
1.0
  0
VERTEX
  5
3AA
100
AcDbEntity
  8
TOPSOLDER
100
AcDbVertex
100
AcDb2dVertex
 10
35.985801
 20
2.54
 30
0.0
 42
1.0
  0
SEQEND
  5
3AB
100
AcDbEntity
  8
0
  0
POLYLINE
  5
3AC
100
AcDbEntity
  8
BOTTOMSOLDER
100
AcDb2dPolyline
 66
     1
 10
0.0
 20
0.0
 30
0.0
 70
     1
 40
0.851598
 41
0.851598
 75
     8
  0
VERTEX
  5
3AD
100
AcDbEntity
  8
BOTTOMSOLDER
100
AcDbVertex
100
AcDb2dVertex
 10
35.134199
 20
2.54
 30
0.0
 42
1.0
  0
VERTEX
  5
3AE
100
AcDbEntity
  8
BOTTOMSOLDER
100
AcDbVertex
100
AcDb2dVertex
 10
35.985801
 20
2.54
 30
0.0
 42
1.0
  0
SEQEND
  5
3AF
100
AcDbEntity
  8
0
  0
POLYLINE
  5
3B0
100
AcDbEntity
  8
MULTILAYER
100
AcDb2dPolyline
 66
     1
 10
0.0
 20
0.0
 30
0.0
 70
     1
 40
0.749999
 41
0.749999
 75
     8
  0
VERTEX
  5
3B1
100
AcDbEntity
  8
MULTILAYER
100
AcDbVertex
100
AcDb2dVertex
 10
35.184999
 20
2.54
 30
0.0
 42
1.0
  0
VERTEX
  5
3B2
100
AcDbEntity
  8
MULTILAYER
100
AcDbVertex
100
AcDb2dVertex
 10
35.935001
 20
2.54
 30
0.0
 42
1.0
  0
SEQEND
  5
3B3
100
AcDbEntity
  8
0
  0
POLYLINE
  5
3B4
100
AcDbEntity
  8
TOPSOLDER
100
AcDb2dPolyline
 66
     1
 10
0.0
 20
0.0
 30
0.0
 70
     1
 40
0.851598
 41
0.851598
 75
     8
  0
VERTEX
  5
3B5
100
AcDbEntity
  8
TOPSOLDER
100
AcDbVertex
100
AcDb2dVertex
 10
37.674199
 20
0.0
 30
0.0
 42
1.0
  0
VERTEX
  5
3B6
100
AcDbEntity
  8
TOPSOLDER
100
AcDbVertex
100
AcDb2dVertex
 10
38.525801
 20
0.0
 30
0.0
 42
1.0
  0
SEQEND
  5
3B7
100
AcDbEntity
  8
0
  0
POLYLINE
  5
3B8
100
AcDbEntity
  8
BOTTOMSOLDER
100
AcDb2dPolyline
 66
     1
 10
0.0
 20
0.0
 30
0.0
 70
     1
 40
0.851598
 41
0.851598
 75
     8
  0
VERTEX
  5
3B9
100
AcDbEntity
  8
BOTTOMSOLDER
100
AcDbVertex
100
AcDb2dVertex
 10
37.674199
 20
0.0
 30
0.0
 42
1.0
  0
VERTEX
  5
3BA
100
AcDbEntity
  8
BOTTOMSOLDER
100
AcDbVertex
100
AcDb2dVertex
 10
38.525801
 20
0.0
 30
0.0
 42
1.0
  0
SEQEND
  5
3BB
100
AcDbEntity
  8
0
  0
POLYLINE
  5
3BC
100
AcDbEntity
  8
MULTILAYER
100
AcDb2dPolyline
 66
     1
 10
0.0
 20
0.0
 30
0.0
 70
     1
 40
0.749999
 41
0.749999
 75
     8
  0
VERTEX
  5
3BD
100
AcDbEntity
  8
MULTILAYER
100
AcDbVertex
100
AcDb2dVertex
 10
37.724999
 20
0.0
 30
0.0
 42
1.0
  0
VERTEX
  5
3BE
100
AcDbEntity
  8
MULTILAYER
100
AcDbVertex
100
AcDb2dVertex
 10
38.475001
 20
0.0
 30
0.0
 42
1.0
  0
SEQEND
  5
3BF
100
AcDbEntity
  8
0
  0
POLYLINE
  5
3C0
100
AcDbEntity
  8
TOPSOLDER
100
AcDb2dPolyline
 66
     1
 10
0.0
 20
0.0
 30
0.0
 70
     1
 40
0.851598
 41
0.851598
 75
     8
  0
VERTEX
  5
3C1
100
AcDbEntity
  8
TOPSOLDER
100
AcDbVertex
100
AcDb2dVertex
 10
37.674199
 20
2.54
 30
0.0
 42
1.0
  0
VERTEX
  5
3C2
100
AcDbEntity
  8
TOPSOLDER
100
AcDbVertex
100
AcDb2dVertex
 10
38.525801
 20
2.54
 30
0.0
 42
1.0
  0
SEQEND
  5
3C3
100
AcDbEntity
  8
0
  0
POLYLINE
  5
3C4
100
AcDbEntity
  8
BOTTOMSOLDER
100
AcDb2dPolyline
 66
     1
 10
0.0
 20
0.0
 30
0.0
 70
     1
 40
0.851598
 41
0.851598
 75
     8
  0
VERTEX
  5
3C5
100
AcDbEntity
  8
BOTTOMSOLDER
100
AcDbVertex
100
AcDb2dVertex
 10
37.674199
 20
2.54
 30
0.0
 42
1.0
  0
VERTEX
  5
3C6
100
AcDbEntity
  8
BOTTOMSOLDER
100
AcDbVertex
100
AcDb2dVertex
 10
38.525801
 20
2.54
 30
0.0
 42
1.0
  0
SEQEND
  5
3C7
100
AcDbEntity
  8
0
  0
POLYLINE
  5
3C8
100
AcDbEntity
  8
MULTILAYER
100
AcDb2dPolyline
 66
     1
 10
0.0
 20
0.0
 30
0.0
 70
     1
 40
0.749999
 41
0.749999
 75
     8
  0
VERTEX
  5
3C9
100
AcDbEntity
  8
MULTILAYER
100
AcDbVertex
100
AcDb2dVertex
 10
37.724999
 20
2.54
 30
0.0
 42
1.0
  0
VERTEX
  5
3CA
100
AcDbEntity
  8
MULTILAYER
100
AcDbVertex
100
AcDb2dVertex
 10
38.475001
 20
2.54
 30
0.0
 42
1.0
  0
SEQEND
  5
3CB
100
AcDbEntity
  8
0
  0
POLYLINE
  5
3CC
100
AcDbEntity
  8
TOPSOLDER
100
AcDb2dPolyline
 66
     1
 10
0.0
 20
0.0
 30
0.0
 70
     1
 40
0.851598
 41
0.851598
 75
     8
  0
VERTEX
  5
3CD
100
AcDbEntity
  8
TOPSOLDER
100
AcDbVertex
100
AcDb2dVertex
 10
40.214199
 20
0.0
 30
0.0
 42
1.0
  0
VERTEX
  5
3CE
100
AcDbEntity
  8
TOPSOLDER
100
AcDbVertex
100
AcDb2dVertex
 10
41.065801
 20
0.0
 30
0.0
 42
1.0
  0
SEQEND
  5
3CF
100
AcDbEntity
  8
0
  0
POLYLINE
  5
3D0
100
AcDbEntity
  8
BOTTOMSOLDER
100
AcDb2dPolyline
 66
     1
 10
0.0
 20
0.0
 30
0.0
 70
     1
 40
0.851598
 41
0.851598
 75
     8
  0
VERTEX
  5
3D1
100
AcDbEntity
  8
BOTTOMSOLDER
100
AcDbVertex
100
AcDb2dVertex
 10
40.214199
 20
0.0
 30
0.0
 42
1.0
  0
VERTEX
  5
3D2
100
AcDbEntity
  8
BOTTOMSOLDER
100
AcDbVertex
100
AcDb2dVertex
 10
41.065801
 20
0.0
 30
0.0
 42
1.0
  0
SEQEND
  5
3D3
100
AcDbEntity
  8
0
  0
POLYLINE
  5
3D4
100
AcDbEntity
  8
MULTILAYER
100
AcDb2dPolyline
 66
     1
 10
0.0
 20
0.0
 30
0.0
 70
     1
 40
0.749999
 41
0.749999
 75
     8
  0
VERTEX
  5
3D5
100
AcDbEntity
  8
MULTILAYER
100
AcDbVertex
100
AcDb2dVertex
 10
40.264999
 20
0.0
 30
0.0
 42
1.0
  0
VERTEX
  5
3D6
100
AcDbEntity
  8
MULTILAYER
100
AcDbVertex
100
AcDb2dVertex
 10
41.015001
 20
0.0
 30
0.0
 42
1.0
  0
SEQEND
  5
3D7
100
AcDbEntity
  8
0
  0
POLYLINE
  5
3D8
100
AcDbEntity
  8
TOPSOLDER
100
AcDb2dPolyline
 66
     1
 10
0.0
 20
0.0
 30
0.0
 70
     1
 40
0.851598
 41
0.851598
 75
     8
  0
VERTEX
  5
3D9
100
AcDbEntity
  8
TOPSOLDER
100
AcDbVertex
100
AcDb2dVertex
 10
40.214199
 20
2.54
 30
0.0
 42
1.0
  0
VERTEX
  5
3DA
100
AcDbEntity
  8
TOPSOLDER
100
AcDbVertex
100
AcDb2dVertex
 10
41.065801
 20
2.54
 30
0.0
 42
1.0
  0
SEQEND
  5
3DB
100
AcDbEntity
  8
0
  0
POLYLINE
  5
3DC
100
AcDbEntity
  8
BOTTOMSOLDER
100
AcDb2dPolyline
 66
     1
 10
0.0
 20
0.0
 30
0.0
 70
     1
 40
0.851598
 41
0.851598
 75
     8
  0
VERTEX
  5
3DD
100
AcDbEntity
  8
BOTTOMSOLDER
100
AcDbVertex
100
AcDb2dVertex
 10
40.214199
 20
2.54
 30
0.0
 42
1.0
  0
VERTEX
  5
3DE
100
AcDbEntity
  8
BOTTOMSOLDER
100
AcDbVertex
100
AcDb2dVertex
 10
41.065801
 20
2.54
 30
0.0
 42
1.0
  0
SEQEND
  5
3DF
100
AcDbEntity
  8
0
  0
POLYLINE
  5
3E0
100
AcDbEntity
  8
MULTILAYER
100
AcDb2dPolyline
 66
     1
 10
0.0
 20
0.0
 30
0.0
 70
     1
 40
0.749999
 41
0.749999
 75
     8
  0
VERTEX
  5
3E1
100
AcDbEntity
  8
MULTILAYER
100
AcDbVertex
100
AcDb2dVertex
 10
40.264999
 20
2.54
 30
0.0
 42
1.0
  0
VERTEX
  5
3E2
100
AcDbEntity
  8
MULTILAYER
100
AcDbVertex
100
AcDb2dVertex
 10
41.015001
 20
2.54
 30
0.0
 42
1.0
  0
SEQEND
  5
3E3
100
AcDbEntity
  8
0
  0
ENDBLK
  5
3E4
100
AcDbEntity
  8
0
100
AcDbBlockEnd
  0
BLOCK
  5
3E9
100
AcDbEntity
  8
0
100
AcDbBlockBegin
  2
3_2TFT_3
 70
     0
 10
0.0
 20
0.0
 30
0.0
  3
3_2TFT_3
  1

  0
POLYLINE
  5
3EA
100
AcDbEntity
  8
TOPOVERLAY
100
AcDb2dPolyline
 66
     1
 10
0.0
 20
0.0
 30
0.0
 40
0.2
 41
0.2
 75
     8
  0
VERTEX
  5
3EB
100
AcDbEntity
  8
TOPOVERLAY
100
AcDbVertex
100
AcDb2dVertex
 10
0.0
 20
-57.499999
 30
0.0
  0
VERTEX
  5
3EC
100
AcDbEntity
  8
TOPOVERLAY
100
AcDbVertex
100
AcDb2dVertex
 10
0.0
 20
0.0
 30
0.0
  0
SEQEND
  5
3ED
100
AcDbEntity
  8
0
  0
POLYLINE
  5
3EE
100
AcDbEntity
  8
TOPOVERLAY
100
AcDb2dPolyline
 66
     1
 10
0.0
 20
0.0
 30
0.0
 70
     1
 40
0.1
 41
0.1
 75
     8
  0
VERTEX
  5
3EF
100
AcDbEntity
  8
TOPOVERLAY
100
AcDbVertex
100
AcDb2dVertex
 10
-0.05
 20
-57.499999
 30
0.0
 42
1.0
  0
VERTEX
  5
3F0
100
AcDbEntity
  8
TOPOVERLAY
100
AcDbVertex
100
AcDb2dVertex
 10
0.05
 20
-57.499999
 30
0.0
 42
1.0
  0
SEQEND
  5
3F1
100
AcDbEntity
  8
0
  0
POLYLINE
  5
3F2
100
AcDbEntity
  8
TOPOVERLAY
100
AcDb2dPolyline
 66
     1
 10
0.0
 20
0.0
 30
0.0
 70
     1
 40
0.1
 41
0.1
 75
     8
  0
VERTEX
  5
3F3
100
AcDbEntity
  8
TOPOVERLAY
100
AcDbVertex
100
AcDb2dVertex
 10
-0.05
 20
0.0
 30
0.0
 42
1.0
  0
VERTEX
  5
3F4
100
AcDbEntity
  8
TOPOVERLAY
100
AcDbVertex
100
AcDb2dVertex
 10
0.05
 20
0.0
 30
0.0
 42
1.0
  0
SEQEND
  5
3F5
100
AcDbEntity
  8
0
  0
POLYLINE
  5
3F6
100
AcDbEntity
  8
TOPOVERLAY
100
AcDb2dPolyline
 66
     1
 10
0.0
 20
0.0
 30
0.0
 40
0.2
 41
0.2
 75
     8
  0
VERTEX
  5
3F7
100
AcDbEntity
  8
TOPOVERLAY
100
AcDbVertex
100
AcDb2dVertex
 10
0.0
 20
0.0
 30
0.0
  0
VERTEX
  5
3F8
100
AcDbEntity
  8
TOPOVERLAY
100
AcDbVertex
100
AcDb2dVertex
 10
79.199999
 20
0.0
 30
0.0
  0
SEQEND
  5
3F9
100
AcDbEntity
  8
0
  0
POLYLINE
  5
3FA
100
AcDbEntity
  8
TOPOVERLAY
100
AcDb2dPolyline
 66
     1
 10
0.0
 20
0.0
 30
0.0
 70
     1
 40
0.1
 41
0.1
 75
     8
  0
VERTEX
  5
3FB
100
AcDbEntity
  8
TOPOVERLAY
100
AcDbVertex
100
AcDb2dVertex
 10
-0.05
 20
0.0
 30
0.0
 42
1.0
  0
VERTEX
  5
3FC
100
AcDbEntity
  8
TOPOVERLAY
100
AcDbVertex
100
AcDb2dVertex
 10
0.05
 20
0.0
 30
0.0
 42
1.0
  0
SEQEND
  5
3FD
100
AcDbEntity
  8
0
  0
POLYLINE
  5
3FE
100
AcDbEntity
  8
TOPOVERLAY
100
AcDb2dPolyline
 66
     1
 10
0.0
 20
0.0
 30
0.0
 70
     1
 40
0.1
 41
0.1
 75
     8
  0
VERTEX
  5
3FF
100
AcDbEntity
  8
TOPOVERLAY
100
AcDbVertex
100
AcDb2dVertex
 10
79.149999
 20
0.0
 30
0.0
 42
1.0
  0
VERTEX
  5
400
100
AcDbEntity
  8
TOPOVERLAY
100
AcDbVertex
100
AcDb2dVertex
 10
79.249999
 20
0.0
 30
0.0
 42
1.0
  0
SEQEND
  5
401
100
AcDbEntity
  8
0
  0
POLYLINE
  5
402
100
AcDbEntity
  8
TOPOVERLAY
100
AcDb2dPolyline
 66
     1
 10
0.0
 20
0.0
 30
0.0
 40
0.2
 41
0.2
 75
     8
  0
VERTEX
  5
403
100
AcDbEntity
  8
TOPOVERLAY
100
AcDbVertex
100
AcDb2dVertex
 10
0.0
 20
-57.499999
 30
0.0
  0
VERTEX
  5
404
100
AcDbEntity
  8
TOPOVERLAY
100
AcDbVertex
100
AcDb2dVertex
 10
79.199999
 20
-57.499999
 30
0.0
  0
SEQEND
  5
405
100
AcDbEntity
  8
0
  0
POLYLINE
  5
406
100
AcDbEntity
  8
TOPOVERLAY
100
AcDb2dPolyline
 66
     1
 10
0.0
 20
0.0
 30
0.0
 70
     1
 40
0.1
 41
0.1
 75
     8
  0
VERTEX
  5
407
100
AcDbEntity
  8
TOPOVERLAY
100
AcDbVertex
100
AcDb2dVertex
 10
-0.05
 20
-57.499999
 30
0.0
 42
1.0
  0
VERTEX
  5
408
100
AcDbEntity
  8
TOPOVERLAY
100
AcDbVertex
100
AcDb2dVertex
 10
0.05
 20
-57.499999
 30
0.0
 42
1.0
  0
SEQEND
  5
409
100
AcDbEntity
  8
0
  0
POLYLINE
  5
40A
100
AcDbEntity
  8
TOPOVERLAY
100
AcDb2dPolyline
 66
     1
 10
0.0
 20
0.0
 30
0.0
 70
     1
 40
0.1
 41
0.1
 75
     8
  0
VERTEX
  5
40B
100
AcDbEntity
  8
TOPOVERLAY
100
AcDbVertex
100
AcDb2dVertex
 10
79.149999
 20
-57.499999
 30
0.0
 42
1.0
  0
VERTEX
  5
40C
100
AcDbEntity
  8
TOPOVERLAY
100
AcDbVertex
100
AcDb2dVertex
 10
79.249999
 20
-57.499999
 30
0.0
 42
1.0
  0
SEQEND
  5
40D
100
AcDbEntity
  8
0
  0
POLYLINE
  5
40E
100
AcDbEntity
  8
TOPOVERLAY
100
AcDb2dPolyline
 66
     1
 10
0.0
 20
0.0
 30
0.0
 40
0.2
 41
0.2
 75
     8
  0
VERTEX
  5
40F
100
AcDbEntity
  8
TOPOVERLAY
100
AcDbVertex
100
AcDb2dVertex
 10
79.199999
 20
-57.499999
 30
0.0
  0
VERTEX
  5
410
100
AcDbEntity
  8
TOPOVERLAY
100
AcDbVertex
100
AcDb2dVertex
 10
79.199999
 20
0.0
 30
0.0
  0
SEQEND
  5
411
100
AcDbEntity
  8
0
  0
POLYLINE
  5
412
100
AcDbEntity
  8
TOPOVERLAY
100
AcDb2dPolyline
 66
     1
 10
0.0
 20
0.0
 30
0.0
 70
     1
 40
0.1
 41
0.1
 75
     8
  0
VERTEX
  5
413
100
AcDbEntity
  8
TOPOVERLAY
100
AcDbVertex
100
AcDb2dVertex
 10
79.149999
 20
-57.499999
 30
0.0
 42
1.0
  0
VERTEX
  5
414
100
AcDbEntity
  8
TOPOVERLAY
100
AcDbVertex
100
AcDb2dVertex
 10
79.249999
 20
-57.499999
 30
0.0
 42
1.0
  0
SEQEND
  5
415
100
AcDbEntity
  8
0
  0
POLYLINE
  5
416
100
AcDbEntity
  8
TOPOVERLAY
100
AcDb2dPolyline
 66
     1
 10
0.0
 20
0.0
 30
0.0
 70
     1
 40
0.1
 41
0.1
 75
     8
  0
VERTEX
  5
417
100
AcDbEntity
  8
TOPOVERLAY
100
AcDbVertex
100
AcDb2dVertex
 10
79.149999
 20
0.0
 30
0.0
 42
1.0
  0
VERTEX
  5
418
100
AcDbEntity
  8
TOPOVERLAY
100
AcDbVertex
100
AcDb2dVertex
 10
79.249999
 20
0.0
 30
0.0
 42
1.0
  0
SEQEND
  5
419
100
AcDbEntity
  8
0
  0
POLYLINE
  5
41A
100
AcDbEntity
  8
TOPSOLDER
100
AcDb2dPolyline
 66
     1
 10
0.0
 20
0.0
 30
0.0
 70
     1
 40
0.601599
 41
0.601599
 75
     8
  0
VERTEX
  5
41B
100
AcDbEntity
  8
TOPSOLDER
100
AcDbVertex
100
AcDb2dVertex
 10
0.899201
 20
-1.1
 30
0.0
 42
1.0
  0
VERTEX
  5
41C
100
AcDbEntity
  8
TOPSOLDER
100
AcDbVertex
100
AcDb2dVertex
 10
1.5008
 20
-1.1
 30
0.0
 42
1.0
  0
SEQEND
  5
41D
100
AcDbEntity
  8
0
  0
POLYLINE
  5
41E
100
AcDbEntity
  8
BOTTOMSOLDER
100
AcDb2dPolyline
 66
     1
 10
0.0
 20
0.0
 30
0.0
 70
     1
 40
0.601599
 41
0.601599
 75
     8
  0
VERTEX
  5
41F
100
AcDbEntity
  8
BOTTOMSOLDER
100
AcDbVertex
100
AcDb2dVertex
 10
0.899201
 20
-1.1
 30
0.0
 42
1.0
  0
VERTEX
  5
420
100
AcDbEntity
  8
BOTTOMSOLDER
100
AcDbVertex
100
AcDb2dVertex
 10
1.5008
 20
-1.1
 30
0.0
 42
1.0
  0
SEQEND
  5
421
100
AcDbEntity
  8
0
  0
POLYLINE
  5
422
100
AcDbEntity
  8
MULTILAYER
100
AcDb2dPolyline
 66
     1
 10
0.0
 20
0.0
 30
0.0
 70
     1
 40
0.499999
 41
0.499999
 75
     8
  0
VERTEX
  5
423
100
AcDbEntity
  8
MULTILAYER
100
AcDbVertex
100
AcDb2dVertex
 10
0.950001
 20
-1.1
 30
0.0
 42
1.0
  0
VERTEX
  5
424
100
AcDbEntity
  8
MULTILAYER
100
AcDbVertex
100
AcDb2dVertex
 10
1.45
 20
-1.1
 30
0.0
 42
1.0
  0
SEQEND
  5
425
100
AcDbEntity
  8
0
  0
POLYLINE
  5
426
100
AcDbEntity
  8
TOPSOLDER
100
AcDb2dPolyline
 66
     1
 10
0.0
 20
0.0
 30
0.0
 70
     1
 40
0.601599
 41
0.601599
 75
     8
  0
VERTEX
  5
427
100
AcDbEntity
  8
TOPSOLDER
100
AcDbVertex
100
AcDb2dVertex
 10
0.899201
 20
-56.500001
 30
0.0
 42
1.0
  0
VERTEX
  5
428
100
AcDbEntity
  8
TOPSOLDER
100
AcDbVertex
100
AcDb2dVertex
 10
1.5008
 20
-56.500001
 30
0.0
 42
1.0
  0
SEQEND
  5
429
100
AcDbEntity
  8
0
  0
POLYLINE
  5
42A
100
AcDbEntity
  8
BOTTOMSOLDER
100
AcDb2dPolyline
 66
     1
 10
0.0
 20
0.0
 30
0.0
 70
     1
 40
0.601599
 41
0.601599
 75
     8
  0
VERTEX
  5
42B
100
AcDbEntity
  8
BOTTOMSOLDER
100
AcDbVertex
100
AcDb2dVertex
 10
0.899201
 20
-56.500001
 30
0.0
 42
1.0
  0
VERTEX
  5
42C
100
AcDbEntity
  8
BOTTOMSOLDER
100
AcDbVertex
100
AcDb2dVertex
 10
1.5008
 20
-56.500001
 30
0.0
 42
1.0
  0
SEQEND
  5
42D
100
AcDbEntity
  8
0
  0
POLYLINE
  5
42E
100
AcDbEntity
  8
MULTILAYER
100
AcDb2dPolyline
 66
     1
 10
0.0
 20
0.0
 30
0.0
 70
     1
 40
0.499999
 41
0.499999
 75
     8
  0
VERTEX
  5
42F
100
AcDbEntity
  8
MULTILAYER
100
AcDbVertex
100
AcDb2dVertex
 10
0.950001
 20
-56.500001
 30
0.0
 42
1.0
  0
VERTEX
  5
430
100
AcDbEntity
  8
MULTILAYER
100
AcDbVertex
100
AcDb2dVertex
 10
1.45
 20
-56.500001
 30
0.0
 42
1.0
  0
SEQEND
  5
431
100
AcDbEntity
  8
0
  0
POLYLINE
  5
432
100
AcDbEntity
  8
TOPSOLDER
100
AcDb2dPolyline
 66
     1
 10
0.0
 20
0.0
 30
0.0
 70
     1
 40
0.601599
 41
0.601599
 75
     8
  0
VERTEX
  5
433
100
AcDbEntity
  8
TOPSOLDER
100
AcDbVertex
100
AcDb2dVertex
 10
77.899202
 20
-56.499999
 30
0.0
 42
1.0
  0
VERTEX
  5
434
100
AcDbEntity
  8
TOPSOLDER
100
AcDbVertex
100
AcDb2dVertex
 10
78.500801
 20
-56.499999
 30
0.0
 42
1.0
  0
SEQEND
  5
435
100
AcDbEntity
  8
0
  0
POLYLINE
  5
436
100
AcDbEntity
  8
BOTTOMSOLDER
100
AcDb2dPolyline
 66
     1
 10
0.0
 20
0.0
 30
0.0
 70
     1
 40
0.601599
 41
0.601599
 75
     8
  0
VERTEX
  5
437
100
AcDbEntity
  8
BOTTOMSOLDER
100
AcDbVertex
100
AcDb2dVertex
 10
77.899202
 20
-56.499999
 30
0.0
 42
1.0
  0
VERTEX
  5
438
100
AcDbEntity
  8
BOTTOMSOLDER
100
AcDbVertex
100
AcDb2dVertex
 10
78.500801
 20
-56.499999
 30
0.0
 42
1.0
  0
SEQEND
  5
439
100
AcDbEntity
  8
0
  0
POLYLINE
  5
43A
100
AcDbEntity
  8
MULTILAYER
100
AcDb2dPolyline
 66
     1
 10
0.0
 20
0.0
 30
0.0
 70
     1
 40
0.499999
 41
0.499999
 75
     8
  0
VERTEX
  5
43B
100
AcDbEntity
  8
MULTILAYER
100
AcDbVertex
100
AcDb2dVertex
 10
77.950002
 20
-56.499999
 30
0.0
 42
1.0
  0
VERTEX
  5
43C
100
AcDbEntity
  8
MULTILAYER
100
AcDbVertex
100
AcDb2dVertex
 10
78.450001
 20
-56.499999
 30
0.0
 42
1.0
  0
SEQEND
  5
43D
100
AcDbEntity
  8
0
  0
POLYLINE
  5
43E
100
AcDbEntity
  8
TOPSOLDER
100
AcDb2dPolyline
 66
     1
 10
0.0
 20
0.0
 30
0.0
 70
     1
 40
0.601599
 41
0.601599
 75
     8
  0
VERTEX
  5
43F
100
AcDbEntity
  8
TOPSOLDER
100
AcDbVertex
100
AcDb2dVertex
 10
77.899202
 20
-1.1
 30
0.0
 42
1.0
  0
VERTEX
  5
440
100
AcDbEntity
  8
TOPSOLDER
100
AcDbVertex
100
AcDb2dVertex
 10
78.500801
 20
-1.1
 30
0.0
 42
1.0
  0
SEQEND
  5
441
100
AcDbEntity
  8
0
  0
POLYLINE
  5
442
100
AcDbEntity
  8
BOTTOMSOLDER
100
AcDb2dPolyline
 66
     1
 10
0.0
 20
0.0
 30
0.0
 70
     1
 40
0.601599
 41
0.601599
 75
     8
  0
VERTEX
  5
443
100
AcDbEntity
  8
BOTTOMSOLDER
100
AcDbVertex
100
AcDb2dVertex
 10
77.899202
 20
-1.1
 30
0.0
 42
1.0
  0
VERTEX
  5
444
100
AcDbEntity
  8
BOTTOMSOLDER
100
AcDbVertex
100
AcDb2dVertex
 10
78.500801
 20
-1.1
 30
0.0
 42
1.0
  0
SEQEND
  5
445
100
AcDbEntity
  8
0
  0
POLYLINE
  5
446
100
AcDbEntity
  8
MULTILAYER
100
AcDb2dPolyline
 66
     1
 10
0.0
 20
0.0
 30
0.0
 70
     1
 40
0.499999
 41
0.499999
 75
     8
  0
VERTEX
  5
447
100
AcDbEntity
  8
MULTILAYER
100
AcDbVertex
100
AcDb2dVertex
 10
77.950002
 20
-1.1
 30
0.0
 42
1.0
  0
VERTEX
  5
448
100
AcDbEntity
  8
MULTILAYER
100
AcDbVertex
100
AcDb2dVertex
 10
78.450001
 20
-1.1
 30
0.0
 42
1.0
  0
SEQEND
  5
449
100
AcDbEntity
  8
0
  0
SOLID
  5
44A
100
AcDbEntity
  8
TOPSOLDER
100
AcDbTrace
 10
31.118
 20
-7.4746
 30
0.0
 11
31.118
 21
-9.677801
 31
0.0
 12
39.321199
 22
-7.4746
 32
0.0
 13
39.321199
 23
-9.677801
 33
0.0
  0
SOLID
  5
44B
100
AcDbEntity
  8
TOPPASTE
100
AcDbTrace
 10
31.2196
 20
-7.5762
 30
0.0
 11
31.2196
 21
-9.576201
 31
0.0
 12
39.219599
 22
-7.5762
 32
0.0
 13
39.219599
 23
-9.576201
 33
0.0
  0
SOLID
  5
44C
100
AcDbEntity
  8
TOPLAYER
100
AcDbTrace
 10
31.2196
 20
-7.5762
 30
0.0
 11
31.2196
 21
-9.576201
 31
0.0
 12
39.219599
 22
-7.5762
 32
0.0
 13
39.219599
 23
-9.576201
 33
0.0
  0
SOLID
  5
44D
100
AcDbEntity
  8
TOPSOLDER
100
AcDbTrace
 10
31.118
 20
-9.424601
 30
0.0
 11
31.118
 21
-10.1278
 31
0.0
 12
39.321199
 22
-9.424601
 32
0.0
 13
39.321199
 23
-10.1278
 33
0.0
  0
SOLID
  5
44E
100
AcDbEntity
  8
TOPPASTE
100
AcDbTrace
 10
31.2196
 20
-9.526201
 30
0.0
 11
31.2196
 21
-10.0262
 31
0.0
 12
39.219599
 22
-9.526201
 32
0.0
 13
39.219599
 23
-10.0262
 33
0.0
  0
SOLID
  5
44F
100
AcDbEntity
  8
TOPLAYER
100
AcDbTrace
 10
31.2196
 20
-9.526201
 30
0.0
 11
31.2196
 21
-10.0262
 31
0.0
 12
39.219599
 22
-9.526201
 32
0.0
 13
39.219599
 23
-10.0262
 33
0.0
  0
SOLID
  5
450
100
AcDbEntity
  8
TOPSOLDER
100
AcDbTrace
 10
31.118
 20
-10.424599
 30
0.0
 11
31.118
 21
-11.127798
 31
0.0
 12
39.321199
 22
-10.424599
 32
0.0
 13
39.321199
 23
-11.127798
 33
0.0
  0
SOLID
  5
451
100
AcDbEntity
  8
TOPPASTE
100
AcDbTrace
 10
31.2196
 20
-10.526199
 30
0.0
 11
31.2196
 21
-11.026198
 31
0.0
 12
39.219599
 22
-10.526199
 32
0.0
 13
39.219599
 23
-11.026198
 33
0.0
  0
SOLID
  5
452
100
AcDbEntity
  8
TOPLAYER
100
AcDbTrace
 10
31.2196
 20
-10.526199
 30
0.0
 11
31.2196
 21
-11.026198
 31
0.0
 12
39.219599
 22
-10.526199
 32
0.0
 13
39.219599
 23
-11.026198
 33
0.0
  0
SOLID
  5
453
100
AcDbEntity
  8
TOPSOLDER
100
AcDbTrace
 10
31.118
 20
-11.4246
 30
0.0
 11
31.118
 21
-12.127799
 31
0.0
 12
39.321199
 22
-11.4246
 32
0.0
 13
39.321199
 23
-12.127799
 33
0.0
  0
SOLID
  5
454
100
AcDbEntity
  8
TOPPASTE
100
AcDbTrace
 10
31.2196
 20
-11.5262
 30
0.0
 11
31.2196
 21
-12.026199
 31
0.0
 12
39.219599
 22
-11.5262
 32
0.0
 13
39.219599
 23
-12.026199
 33
0.0
  0
SOLID
  5
455
100
AcDbEntity
  8
TOPLAYER
100
AcDbTrace
 10
31.2196
 20
-11.5262
 30
0.0
 11
31.2196
 21
-12.026199
 31
0.0
 12
39.219599
 22
-11.5262
 32
0.0
 13
39.219599
 23
-12.026199
 33
0.0
  0
SOLID
  5
456
100
AcDbEntity
  8
TOPSOLDER
100
AcDbTrace
 10
31.118
 20
-47.424619
 30
0.0
 11
31.118
 21
-48.127818
 31
0.0
 12
39.321199
 22
-47.424619
 32
0.0
 13
39.321199
 23
-48.127818
 33
0.0
  0
SOLID
  5
457
100
AcDbEntity
  8
TOPPASTE
100
AcDbTrace
 10
31.2196
 20
-47.526219
 30
0.0
 11
31.2196
 21
-48.026218
 31
0.0
 12
39.219599
 22
-47.526219
 32
0.0
 13
39.219599
 23
-48.026218
 33
0.0
  0
SOLID
  5
458
100
AcDbEntity
  8
TOPLAYER
100
AcDbTrace
 10
31.2196
 20
-47.526219
 30
0.0
 11
31.2196
 21
-48.026218
 31
0.0
 12
39.219599
 22
-47.526219
 32
0.0
 13
39.219599
 23
-48.026218
 33
0.0
  0
SOLID
  5
459
100
AcDbEntity
  8
TOPSOLDER
100
AcDbTrace
 10
31.118
 20
-46.424621
 30
0.0
 11
31.118
 21
-47.12782
 31
0.0
 12
39.321199
 22
-46.424621
 32
0.0
 13
39.321199
 23
-47.12782
 33
0.0
  0
SOLID
  5
45A
100
AcDbEntity
  8
TOPPASTE
100
AcDbTrace
 10
31.2196
 20
-46.526221
 30
0.0
 11
31.2196
 21
-47.02622
 31
0.0
 12
39.219599
 22
-46.526221
 32
0.0
 13
39.219599
 23
-47.02622
 33
0.0
  0
SOLID
  5
45B
100
AcDbEntity
  8
TOPLAYER
100
AcDbTrace
 10
31.2196
 20
-46.526221
 30
0.0
 11
31.2196
 21
-47.02622
 31
0.0
 12
39.219599
 22
-46.526221
 32
0.0
 13
39.219599
 23
-47.02622
 33
0.0
  0
SOLID
  5
45C
100
AcDbEntity
  8
TOPSOLDER
100
AcDbTrace
 10
31.118
 20
-45.424621
 30
0.0
 11
31.118
 21
-46.12782
 31
0.0
 12
39.321199
 22
-45.424621
 32
0.0
 13
39.321199
 23
-46.12782
 33
0.0
  0
SOLID
  5
45D
100
AcDbEntity
  8
TOPPASTE
100
AcDbTrace
 10
31.2196
 20
-45.526221
 30
0.0
 11
31.2196
 21
-46.02622
 31
0.0
 12
39.219599
 22
-45.526221
 32
0.0
 13
39.219599
 23
-46.02622
 33
0.0
  0
SOLID
  5
45E
100
AcDbEntity
  8
TOPLAYER
100
AcDbTrace
 10
31.2196
 20
-45.526221
 30
0.0
 11
31.2196
 21
-46.02622
 31
0.0
 12
39.219599
 22
-45.526221
 32
0.0
 13
39.219599
 23
-46.02622
 33
0.0
  0
SOLID
  5
45F
100
AcDbEntity
  8
TOPSOLDER
100
AcDbTrace
 10
31.118
 20
-44.42462
 30
0.0
 11
31.118
 21
-45.127819
 31
0.0
 12
39.321199
 22
-44.42462
 32
0.0
 13
39.321199
 23
-45.127819
 33
0.0
  0
SOLID
  5
460
100
AcDbEntity
  8
TOPPASTE
100
AcDbTrace
 10
31.2196
 20
-44.52622
 30
0.0
 11
31.2196
 21
-45.026219
 31
0.0
 12
39.219599
 22
-44.52622
 32
0.0
 13
39.219599
 23
-45.026219
 33
0.0
  0
SOLID
  5
461
100
AcDbEntity
  8
TOPLAYER
100
AcDbTrace
 10
31.2196
 20
-44.52622
 30
0.0
 11
31.2196
 21
-45.026219
 31
0.0
 12
39.219599
 22
-44.52622
 32
0.0
 13
39.219599
 23
-45.026219
 33
0.0
  0
SOLID
  5
462
100
AcDbEntity
  8
TOPSOLDER
100
AcDbTrace
 10
31.118
 20
-43.424622
 30
0.0
 11
31.118
 21
-44.127821
 31
0.0
 12
39.321199
 22
-43.424622
 32
0.0
 13
39.321199
 23
-44.127821
 33
0.0
  0
SOLID
  5
463
100
AcDbEntity
  8
TOPPASTE
100
AcDbTrace
 10
31.2196
 20
-43.526222
 30
0.0
 11
31.2196
 21
-44.026221
 31
0.0
 12
39.219599
 22
-43.526222
 32
0.0
 13
39.219599
 23
-44.026221
 33
0.0
  0
SOLID
  5
464
100
AcDbEntity
  8
TOPLAYER
100
AcDbTrace
 10
31.2196
 20
-43.526222
 30
0.0
 11
31.2196
 21
-44.026221
 31
0.0
 12
39.219599
 22
-43.526222
 32
0.0
 13
39.219599
 23
-44.026221
 33
0.0
  0
SOLID
  5
465
100
AcDbEntity
  8
TOPSOLDER
100
AcDbTrace
 10
31.118
 20
-42.424622
 30
0.0
 11
31.118
 21
-43.127821
 31
0.0
 12
39.321199
 22
-42.424622
 32
0.0
 13
39.321199
 23
-43.127821
 33
0.0
  0
SOLID
  5
466
100
AcDbEntity
  8
TOPPASTE
100
AcDbTrace
 10
31.2196
 20
-42.526222
 30
0.0
 11
31.2196
 21
-43.026221
 31
0.0
 12
39.219599
 22
-42.526222
 32
0.0
 13
39.219599
 23
-43.026221
 33
0.0
  0
SOLID
  5
467
100
AcDbEntity
  8
TOPLAYER
100
AcDbTrace
 10
31.2196
 20
-42.526222
 30
0.0
 11
31.2196
 21
-43.026221
 31
0.0
 12
39.219599
 22
-42.526222
 32
0.0
 13
39.219599
 23
-43.026221
 33
0.0
  0
SOLID
  5
468
100
AcDbEntity
  8
TOPSOLDER
100
AcDbTrace
 10
31.118
 20
-41.424621
 30
0.0
 11
31.118
 21
-42.12782
 31
0.0
 12
39.321199
 22
-41.424621
 32
0.0
 13
39.321199
 23
-42.12782
 33
0.0
  0
SOLID
  5
469
100
AcDbEntity
  8
TOPPASTE
100
AcDbTrace
 10
31.2196
 20
-41.526221
 30
0.0
 11
31.2196
 21
-42.02622
 31
0.0
 12
39.219599
 22
-41.526221
 32
0.0
 13
39.219599
 23
-42.02622
 33
0.0
  0
SOLID
  5
46A
100
AcDbEntity
  8
TOPLAYER
100
AcDbTrace
 10
31.2196
 20
-41.526221
 30
0.0
 11
31.2196
 21
-42.02622
 31
0.0
 12
39.219599
 22
-41.526221
 32
0.0
 13
39.219599
 23
-42.02622
 33
0.0
  0
SOLID
  5
46B
100
AcDbEntity
  8
TOPSOLDER
100
AcDbTrace
 10
31.118
 20
-40.424621
 30
0.0
 11
31.118
 21
-41.12782
 31
0.0
 12
39.321199
 22
-40.424621
 32
0.0
 13
39.321199
 23
-41.12782
 33
0.0
  0
SOLID
  5
46C
100
AcDbEntity
  8
TOPPASTE
100
AcDbTrace
 10
31.2196
 20
-40.526221
 30
0.0
 11
31.2196
 21
-41.02622
 31
0.0
 12
39.219599
 22
-40.526221
 32
0.0
 13
39.219599
 23
-41.02622
 33
0.0
  0
SOLID
  5
46D
100
AcDbEntity
  8
TOPLAYER
100
AcDbTrace
 10
31.2196
 20
-40.526221
 30
0.0
 11
31.2196
 21
-41.02622
 31
0.0
 12
39.219599
 22
-40.526221
 32
0.0
 13
39.219599
 23
-41.02622
 33
0.0
  0
SOLID
  5
46E
100
AcDbEntity
  8
TOPSOLDER
100
AcDbTrace
 10
31.118
 20
-39.42462
 30
0.0
 11
31.118
 21
-40.127819
 31
0.0
 12
39.321199
 22
-39.42462
 32
0.0
 13
39.321199
 23
-40.127819
 33
0.0
  0
SOLID
  5
46F
100
AcDbEntity
  8
TOPPASTE
100
AcDbTrace
 10
31.2196
 20
-39.52622
 30
0.0
 11
31.2196
 21
-40.026219
 31
0.0
 12
39.219599
 22
-39.52622
 32
0.0
 13
39.219599
 23
-40.026219
 33
0.0
  0
SOLID
  5
470
100
AcDbEntity
  8
TOPLAYER
100
AcDbTrace
 10
31.2196
 20
-39.52622
 30
0.0
 11
31.2196
 21
-40.026219
 31
0.0
 12
39.219599
 22
-39.52622
 32
0.0
 13
39.219599
 23
-40.026219
 33
0.0
  0
SOLID
  5
471
100
AcDbEntity
  8
TOPSOLDER
100
AcDbTrace
 10
31.118
 20
-38.424622
 30
0.0
 11
31.118
 21
-39.127821
 31
0.0
 12
39.321199
 22
-38.424622
 32
0.0
 13
39.321199
 23
-39.127821
 33
0.0
  0
SOLID
  5
472
100
AcDbEntity
  8
TOPPASTE
100
AcDbTrace
 10
31.2196
 20
-38.526222
 30
0.0
 11
31.2196
 21
-39.026221
 31
0.0
 12
39.219599
 22
-38.526222
 32
0.0
 13
39.219599
 23
-39.026221
 33
0.0
  0
SOLID
  5
473
100
AcDbEntity
  8
TOPLAYER
100
AcDbTrace
 10
31.2196
 20
-38.526222
 30
0.0
 11
31.2196
 21
-39.026221
 31
0.0
 12
39.219599
 22
-38.526222
 32
0.0
 13
39.219599
 23
-39.026221
 33
0.0
  0
SOLID
  5
474
100
AcDbEntity
  8
TOPSOLDER
100
AcDbTrace
 10
31.118
 20
-37.424622
 30
0.0
 11
31.118
 21
-38.127821
 31
0.0
 12
39.321199
 22
-37.424622
 32
0.0
 13
39.321199
 23
-38.127821
 33
0.0
  0
SOLID
  5
475
100
AcDbEntity
  8
TOPPASTE
100
AcDbTrace
 10
31.2196
 20
-37.526222
 30
0.0
 11
31.2196
 21
-38.026221
 31
0.0
 12
39.219599
 22
-37.526222
 32
0.0
 13
39.219599
 23
-38.026221
 33
0.0
  0
SOLID
  5
476
100
AcDbEntity
  8
TOPLAYER
100
AcDbTrace
 10
31.2196
 20
-37.526222
 30
0.0
 11
31.2196
 21
-38.026221
 31
0.0
 12
39.219599
 22
-37.526222
 32
0.0
 13
39.219599
 23
-38.026221
 33
0.0
  0
SOLID
  5
477
100
AcDbEntity
  8
TOPSOLDER
100
AcDbTrace
 10
31.118
 20
-36.424611
 30
0.0
 11
31.118
 21
-37.12781
 31
0.0
 12
39.321199
 22
-36.424611
 32
0.0
 13
39.321199
 23
-37.12781
 33
0.0
  0
SOLID
  5
478
100
AcDbEntity
  8
TOPPASTE
100
AcDbTrace
 10
31.2196
 20
-36.526211
 30
0.0
 11
31.2196
 21
-37.02621
 31
0.0
 12
39.219599
 22
-36.526211
 32
0.0
 13
39.219599
 23
-37.02621
 33
0.0
  0
SOLID
  5
479
100
AcDbEntity
  8
TOPLAYER
100
AcDbTrace
 10
31.2196
 20
-36.526211
 30
0.0
 11
31.2196
 21
-37.02621
 31
0.0
 12
39.219599
 22
-36.526211
 32
0.0
 13
39.219599
 23
-37.02621
 33
0.0
  0
SOLID
  5
47A
100
AcDbEntity
  8
TOPSOLDER
100
AcDbTrace
 10
31.118
 20
-35.42461
 30
0.0
 11
31.118
 21
-36.127809
 31
0.0
 12
39.321199
 22
-35.42461
 32
0.0
 13
39.321199
 23
-36.127809
 33
0.0
  0
SOLID
  5
47B
100
AcDbEntity
  8
TOPPASTE
100
AcDbTrace
 10
31.2196
 20
-35.52621
 30
0.0
 11
31.2196
 21
-36.026209
 31
0.0
 12
39.219599
 22
-35.52621
 32
0.0
 13
39.219599
 23
-36.026209
 33
0.0
  0
SOLID
  5
47C
100
AcDbEntity
  8
TOPLAYER
100
AcDbTrace
 10
31.2196
 20
-35.52621
 30
0.0
 11
31.2196
 21
-36.026209
 31
0.0
 12
39.219599
 22
-35.52621
 32
0.0
 13
39.219599
 23
-36.026209
 33
0.0
  0
SOLID
  5
47D
100
AcDbEntity
  8
TOPSOLDER
100
AcDbTrace
 10
31.118
 20
-34.424612
 30
0.0
 11
31.118
 21
-35.127811
 31
0.0
 12
39.321199
 22
-34.424612
 32
0.0
 13
39.321199
 23
-35.127811
 33
0.0
  0
SOLID
  5
47E
100
AcDbEntity
  8
TOPPASTE
100
AcDbTrace
 10
31.2196
 20
-34.526212
 30
0.0
 11
31.2196
 21
-35.026211
 31
0.0
 12
39.219599
 22
-34.526212
 32
0.0
 13
39.219599
 23
-35.026211
 33
0.0
  0
SOLID
  5
47F
100
AcDbEntity
  8
TOPLAYER
100
AcDbTrace
 10
31.2196
 20
-34.526212
 30
0.0
 11
31.2196
 21
-35.026211
 31
0.0
 12
39.219599
 22
-34.526212
 32
0.0
 13
39.219599
 23
-35.026211
 33
0.0
  0
SOLID
  5
480
100
AcDbEntity
  8
TOPSOLDER
100
AcDbTrace
 10
31.118
 20
-33.424612
 30
0.0
 11
31.118
 21
-34.127811
 31
0.0
 12
39.321199
 22
-33.424612
 32
0.0
 13
39.321199
 23
-34.127811
 33
0.0
  0
SOLID
  5
481
100
AcDbEntity
  8
TOPPASTE
100
AcDbTrace
 10
31.2196
 20
-33.526212
 30
0.0
 11
31.2196
 21
-34.026211
 31
0.0
 12
39.219599
 22
-33.526212
 32
0.0
 13
39.219599
 23
-34.026211
 33
0.0
  0
SOLID
  5
482
100
AcDbEntity
  8
TOPLAYER
100
AcDbTrace
 10
31.2196
 20
-33.526212
 30
0.0
 11
31.2196
 21
-34.026211
 31
0.0
 12
39.219599
 22
-33.526212
 32
0.0
 13
39.219599
 23
-34.026211
 33
0.0
  0
SOLID
  5
483
100
AcDbEntity
  8
TOPSOLDER
100
AcDbTrace
 10
31.118
 20
-32.424611
 30
0.0
 11
31.118
 21
-33.12781
 31
0.0
 12
39.321199
 22
-32.424611
 32
0.0
 13
39.321199
 23
-33.12781
 33
0.0
  0
SOLID
  5
484
100
AcDbEntity
  8
TOPPASTE
100
AcDbTrace
 10
31.2196
 20
-32.526211
 30
0.0
 11
31.2196
 21
-33.02621
 31
0.0
 12
39.219599
 22
-32.526211
 32
0.0
 13
39.219599
 23
-33.02621
 33
0.0
  0
SOLID
  5
485
100
AcDbEntity
  8
TOPLAYER
100
AcDbTrace
 10
31.2196
 20
-32.526211
 30
0.0
 11
31.2196
 21
-33.02621
 31
0.0
 12
39.219599
 22
-32.526211
 32
0.0
 13
39.219599
 23
-33.02621
 33
0.0
  0
SOLID
  5
486
100
AcDbEntity
  8
TOPSOLDER
100
AcDbTrace
 10
31.118
 20
-31.424611
 30
0.0
 11
31.118
 21
-32.12781
 31
0.0
 12
39.321199
 22
-31.424611
 32
0.0
 13
39.321199
 23
-32.12781
 33
0.0
  0
SOLID
  5
487
100
AcDbEntity
  8
TOPPASTE
100
AcDbTrace
 10
31.2196
 20
-31.526211
 30
0.0
 11
31.2196
 21
-32.02621
 31
0.0
 12
39.219599
 22
-31.526211
 32
0.0
 13
39.219599
 23
-32.02621
 33
0.0
  0
SOLID
  5
488
100
AcDbEntity
  8
TOPLAYER
100
AcDbTrace
 10
31.2196
 20
-31.526211
 30
0.0
 11
31.2196
 21
-32.02621
 31
0.0
 12
39.219599
 22
-31.526211
 32
0.0
 13
39.219599
 23
-32.02621
 33
0.0
  0
SOLID
  5
489
100
AcDbEntity
  8
TOPSOLDER
100
AcDbTrace
 10
31.118
 20
-30.42461
 30
0.0
 11
31.118
 21
-31.127809
 31
0.0
 12
39.321199
 22
-30.42461
 32
0.0
 13
39.321199
 23
-31.127809
 33
0.0
  0
SOLID
  5
48A
100
AcDbEntity
  8
TOPPASTE
100
AcDbTrace
 10
31.2196
 20
-30.52621
 30
0.0
 11
31.2196
 21
-31.026209
 31
0.0
 12
39.219599
 22
-30.52621
 32
0.0
 13
39.219599
 23
-31.026209
 33
0.0
  0
SOLID
  5
48B
100
AcDbEntity
  8
TOPLAYER
100
AcDbTrace
 10
31.2196
 20
-30.52621
 30
0.0
 11
31.2196
 21
-31.026209
 31
0.0
 12
39.219599
 22
-30.52621
 32
0.0
 13
39.219599
 23
-31.026209
 33
0.0
  0
SOLID
  5
48C
100
AcDbEntity
  8
TOPSOLDER
100
AcDbTrace
 10
31.118
 20
-29.424612
 30
0.0
 11
31.118
 21
-30.127811
 31
0.0
 12
39.321199
 22
-29.424612
 32
0.0
 13
39.321199
 23
-30.127811
 33
0.0
  0
SOLID
  5
48D
100
AcDbEntity
  8
TOPPASTE
100
AcDbTrace
 10
31.2196
 20
-29.526212
 30
0.0
 11
31.2196
 21
-30.026211
 31
0.0
 12
39.219599
 22
-29.526212
 32
0.0
 13
39.219599
 23
-30.026211
 33
0.0
  0
SOLID
  5
48E
100
AcDbEntity
  8
TOPLAYER
100
AcDbTrace
 10
31.2196
 20
-29.526212
 30
0.0
 11
31.2196
 21
-30.026211
 31
0.0
 12
39.219599
 22
-29.526212
 32
0.0
 13
39.219599
 23
-30.026211
 33
0.0
  0
SOLID
  5
48F
100
AcDbEntity
  8
TOPSOLDER
100
AcDbTrace
 10
31.118
 20
-28.424612
 30
0.0
 11
31.118
 21
-29.127811
 31
0.0
 12
39.321199
 22
-28.424612
 32
0.0
 13
39.321199
 23
-29.127811
 33
0.0
  0
SOLID
  5
490
100
AcDbEntity
  8
TOPPASTE
100
AcDbTrace
 10
31.2196
 20
-28.526212
 30
0.0
 11
31.2196
 21
-29.026211
 31
0.0
 12
39.219599
 22
-28.526212
 32
0.0
 13
39.219599
 23
-29.026211
 33
0.0
  0
SOLID
  5
491
100
AcDbEntity
  8
TOPLAYER
100
AcDbTrace
 10
31.2196
 20
-28.526212
 30
0.0
 11
31.2196
 21
-29.026211
 31
0.0
 12
39.219599
 22
-28.526212
 32
0.0
 13
39.219599
 23
-29.026211
 33
0.0
  0
SOLID
  5
492
100
AcDbEntity
  8
TOPSOLDER
100
AcDbTrace
 10
31.118
 20
-27.424611
 30
0.0
 11
31.118
 21
-28.12781
 31
0.0
 12
39.321199
 22
-27.424611
 32
0.0
 13
39.321199
 23
-28.12781
 33
0.0
  0
SOLID
  5
493
100
AcDbEntity
  8
TOPPASTE
100
AcDbTrace
 10
31.2196
 20
-27.526211
 30
0.0
 11
31.2196
 21
-28.02621
 31
0.0
 12
39.219599
 22
-27.526211
 32
0.0
 13
39.219599
 23
-28.02621
 33
0.0
  0
SOLID
  5
494
100
AcDbEntity
  8
TOPLAYER
100
AcDbTrace
 10
31.2196
 20
-27.526211
 30
0.0
 11
31.2196
 21
-28.02621
 31
0.0
 12
39.219599
 22
-27.526211
 32
0.0
 13
39.219599
 23
-28.02621
 33
0.0
  0
SOLID
  5
495
100
AcDbEntity
  8
TOPSOLDER
100
AcDbTrace
 10
31.118
 20
-26.424611
 30
0.0
 11
31.118
 21
-27.12781
 31
0.0
 12
39.321199
 22
-26.424611
 32
0.0
 13
39.321199
 23
-27.12781
 33
0.0
  0
SOLID
  5
496
100
AcDbEntity
  8
TOPPASTE
100
AcDbTrace
 10
31.2196
 20
-26.526211
 30
0.0
 11
31.2196
 21
-27.02621
 31
0.0
 12
39.219599
 22
-26.526211
 32
0.0
 13
39.219599
 23
-27.02621
 33
0.0
  0
SOLID
  5
497
100
AcDbEntity
  8
TOPLAYER
100
AcDbTrace
 10
31.2196
 20
-26.526211
 30
0.0
 11
31.2196
 21
-27.02621
 31
0.0
 12
39.219599
 22
-26.526211
 32
0.0
 13
39.219599
 23
-27.02621
 33
0.0
  0
SOLID
  5
498
100
AcDbEntity
  8
TOPSOLDER
100
AcDbTrace
 10
31.118
 20
-25.424613
 30
0.0
 11
31.118
 21
-26.127812
 31
0.0
 12
39.321199
 22
-25.424613
 32
0.0
 13
39.321199
 23
-26.127812
 33
0.0
  0
SOLID
  5
499
100
AcDbEntity
  8
TOPPASTE
100
AcDbTrace
 10
31.2196
 20
-25.526213
 30
0.0
 11
31.2196
 21
-26.026212
 31
0.0
 12
39.219599
 22
-25.526213
 32
0.0
 13
39.219599
 23
-26.026212
 33
0.0
  0
SOLID
  5
49A
100
AcDbEntity
  8
TOPLAYER
100
AcDbTrace
 10
31.2196
 20
-25.526213
 30
0.0
 11
31.2196
 21
-26.026212
 31
0.0
 12
39.219599
 22
-25.526213
 32
0.0
 13
39.219599
 23
-26.026212
 33
0.0
  0
SOLID
  5
49B
100
AcDbEntity
  8
TOPSOLDER
100
AcDbTrace
 10
31.118
 20
-24.424612
 30
0.0
 11
31.118
 21
-25.127811
 31
0.0
 12
39.321199
 22
-24.424612
 32
0.0
 13
39.321199
 23
-25.127811
 33
0.0
  0
SOLID
  5
49C
100
AcDbEntity
  8
TOPPASTE
100
AcDbTrace
 10
31.2196
 20
-24.526212
 30
0.0
 11
31.2196
 21
-25.026211
 31
0.0
 12
39.219599
 22
-24.526212
 32
0.0
 13
39.219599
 23
-25.026211
 33
0.0
  0
SOLID
  5
49D
100
AcDbEntity
  8
TOPLAYER
100
AcDbTrace
 10
31.2196
 20
-24.526212
 30
0.0
 11
31.2196
 21
-25.026211
 31
0.0
 12
39.219599
 22
-24.526212
 32
0.0
 13
39.219599
 23
-25.026211
 33
0.0
  0
SOLID
  5
49E
100
AcDbEntity
  8
TOPSOLDER
100
AcDbTrace
 10
31.118
 20
-23.424612
 30
0.0
 11
31.118
 21
-24.127811
 31
0.0
 12
39.321199
 22
-23.424612
 32
0.0
 13
39.321199
 23
-24.127811
 33
0.0
  0
SOLID
  5
49F
100
AcDbEntity
  8
TOPPASTE
100
AcDbTrace
 10
31.2196
 20
-23.526212
 30
0.0
 11
31.2196
 21
-24.026211
 31
0.0
 12
39.219599
 22
-23.526212
 32
0.0
 13
39.219599
 23
-24.026211
 33
0.0
  0
SOLID
  5
4A0
100
AcDbEntity
  8
TOPLAYER
100
AcDbTrace
 10
31.2196
 20
-23.526212
 30
0.0
 11
31.2196
 21
-24.026211
 31
0.0
 12
39.219599
 22
-23.526212
 32
0.0
 13
39.219599
 23
-24.026211
 33
0.0
  0
SOLID
  5
4A1
100
AcDbEntity
  8
TOPSOLDER
100
AcDbTrace
 10
31.118
 20
-22.424611
 30
0.0
 11
31.118
 21
-23.12781
 31
0.0
 12
39.321199
 22
-22.424611
 32
0.0
 13
39.321199
 23
-23.12781
 33
0.0
  0
SOLID
  5
4A2
100
AcDbEntity
  8
TOPPASTE
100
AcDbTrace
 10
31.2196
 20
-22.526211
 30
0.0
 11
31.2196
 21
-23.02621
 31
0.0
 12
39.219599
 22
-22.526211
 32
0.0
 13
39.219599
 23
-23.02621
 33
0.0
  0
SOLID
  5
4A3
100
AcDbEntity
  8
TOPLAYER
100
AcDbTrace
 10
31.2196
 20
-22.526211
 30
0.0
 11
31.2196
 21
-23.02621
 31
0.0
 12
39.219599
 22
-22.526211
 32
0.0
 13
39.219599
 23
-23.02621
 33
0.0
  0
SOLID
  5
4A4
100
AcDbEntity
  8
TOPSOLDER
100
AcDbTrace
 10
31.118
 20
-21.42461
 30
0.0
 11
31.118
 21
-22.127809
 31
0.0
 12
39.321199
 22
-21.42461
 32
0.0
 13
39.321199
 23
-22.127809
 33
0.0
  0
SOLID
  5
4A5
100
AcDbEntity
  8
TOPPASTE
100
AcDbTrace
 10
31.2196
 20
-21.52621
 30
0.0
 11
31.2196
 21
-22.026209
 31
0.0
 12
39.219599
 22
-21.52621
 32
0.0
 13
39.219599
 23
-22.026209
 33
0.0
  0
SOLID
  5
4A6
100
AcDbEntity
  8
TOPLAYER
100
AcDbTrace
 10
31.2196
 20
-21.52621
 30
0.0
 11
31.2196
 21
-22.026209
 31
0.0
 12
39.219599
 22
-21.52621
 32
0.0
 13
39.219599
 23
-22.026209
 33
0.0
  0
SOLID
  5
4A7
100
AcDbEntity
  8
TOPSOLDER
100
AcDbTrace
 10
31.118
 20
-20.424612
 30
0.0
 11
31.118
 21
-21.127811
 31
0.0
 12
39.321199
 22
-20.424612
 32
0.0
 13
39.321199
 23
-21.127811
 33
0.0
  0
SOLID
  5
4A8
100
AcDbEntity
  8
TOPPASTE
100
AcDbTrace
 10
31.2196
 20
-20.526212
 30
0.0
 11
31.2196
 21
-21.026211
 31
0.0
 12
39.219599
 22
-20.526212
 32
0.0
 13
39.219599
 23
-21.026211
 33
0.0
  0
SOLID
  5
4A9
100
AcDbEntity
  8
TOPLAYER
100
AcDbTrace
 10
31.2196
 20
-20.526212
 30
0.0
 11
31.2196
 21
-21.026211
 31
0.0
 12
39.219599
 22
-20.526212
 32
0.0
 13
39.219599
 23
-21.026211
 33
0.0
  0
SOLID
  5
4AA
100
AcDbEntity
  8
TOPSOLDER
100
AcDbTrace
 10
31.118
 20
-19.424612
 30
0.0
 11
31.118
 21
-20.127811
 31
0.0
 12
39.321199
 22
-19.424612
 32
0.0
 13
39.321199
 23
-20.127811
 33
0.0
  0
SOLID
  5
4AB
100
AcDbEntity
  8
TOPPASTE
100
AcDbTrace
 10
31.2196
 20
-19.526212
 30
0.0
 11
31.2196
 21
-20.026211
 31
0.0
 12
39.219599
 22
-19.526212
 32
0.0
 13
39.219599
 23
-20.026211
 33
0.0
  0
SOLID
  5
4AC
100
AcDbEntity
  8
TOPLAYER
100
AcDbTrace
 10
31.2196
 20
-19.526212
 30
0.0
 11
31.2196
 21
-20.026211
 31
0.0
 12
39.219599
 22
-19.526212
 32
0.0
 13
39.219599
 23
-20.026211
 33
0.0
  0
SOLID
  5
4AD
100
AcDbEntity
  8
TOPSOLDER
100
AcDbTrace
 10
31.118
 20
-18.424601
 30
0.0
 11
31.118
 21
-19.1278
 31
0.0
 12
39.321199
 22
-18.424601
 32
0.0
 13
39.321199
 23
-19.1278
 33
0.0
  0
SOLID
  5
4AE
100
AcDbEntity
  8
TOPPASTE
100
AcDbTrace
 10
31.2196
 20
-18.526201
 30
0.0
 11
31.2196
 21
-19.0262
 31
0.0
 12
39.219599
 22
-18.526201
 32
0.0
 13
39.219599
 23
-19.0262
 33
0.0
  0
SOLID
  5
4AF
100
AcDbEntity
  8
TOPLAYER
100
AcDbTrace
 10
31.2196
 20
-18.526201
 30
0.0
 11
31.2196
 21
-19.0262
 31
0.0
 12
39.219599
 22
-18.526201
 32
0.0
 13
39.219599
 23
-19.0262
 33
0.0
  0
SOLID
  5
4B0
100
AcDbEntity
  8
TOPSOLDER
100
AcDbTrace
 10
31.118
 20
-17.424601
 30
0.0
 11
31.118
 21
-18.1278
 31
0.0
 12
39.321199
 22
-17.424601
 32
0.0
 13
39.321199
 23
-18.1278
 33
0.0
  0
SOLID
  5
4B1
100
AcDbEntity
  8
TOPPASTE
100
AcDbTrace
 10
31.2196
 20
-17.526201
 30
0.0
 11
31.2196
 21
-18.0262
 31
0.0
 12
39.219599
 22
-17.526201
 32
0.0
 13
39.219599
 23
-18.0262
 33
0.0
  0
SOLID
  5
4B2
100
AcDbEntity
  8
TOPLAYER
100
AcDbTrace
 10
31.2196
 20
-17.526201
 30
0.0
 11
31.2196
 21
-18.0262
 31
0.0
 12
39.219599
 22
-17.526201
 32
0.0
 13
39.219599
 23
-18.0262
 33
0.0
  0
SOLID
  5
4B3
100
AcDbEntity
  8
TOPSOLDER
100
AcDbTrace
 10
31.118
 20
-16.424603
 30
0.0
 11
31.118
 21
-17.127802
 31
0.0
 12
39.321199
 22
-16.424603
 32
0.0
 13
39.321199
 23
-17.127802
 33
0.0
  0
SOLID
  5
4B4
100
AcDbEntity
  8
TOPPASTE
100
AcDbTrace
 10
31.2196
 20
-16.526203
 30
0.0
 11
31.2196
 21
-17.026202
 31
0.0
 12
39.219599
 22
-16.526203
 32
0.0
 13
39.219599
 23
-17.026202
 33
0.0
  0
SOLID
  5
4B5
100
AcDbEntity
  8
TOPLAYER
100
AcDbTrace
 10
31.2196
 20
-16.526203
 30
0.0
 11
31.2196
 21
-17.026202
 31
0.0
 12
39.219599
 22
-16.526203
 32
0.0
 13
39.219599
 23
-17.026202
 33
0.0
  0
SOLID
  5
4B6
100
AcDbEntity
  8
TOPSOLDER
100
AcDbTrace
 10
31.118
 20
-15.4246
 30
0.0
 11
31.118
 21
-16.127799
 31
0.0
 12
39.321199
 22
-15.4246
 32
0.0
 13
39.321199
 23
-16.127799
 33
0.0
  0
SOLID
  5
4B7
100
AcDbEntity
  8
TOPPASTE
100
AcDbTrace
 10
31.2196
 20
-15.5262
 30
0.0
 11
31.2196
 21
-16.026199
 31
0.0
 12
39.219599
 22
-15.5262
 32
0.0
 13
39.219599
 23
-16.026199
 33
0.0
  0
SOLID
  5
4B8
100
AcDbEntity
  8
TOPLAYER
100
AcDbTrace
 10
31.2196
 20
-15.5262
 30
0.0
 11
31.2196
 21
-16.026199
 31
0.0
 12
39.219599
 22
-15.5262
 32
0.0
 13
39.219599
 23
-16.026199
 33
0.0
  0
SOLID
  5
4B9
100
AcDbEntity
  8
TOPSOLDER
100
AcDbTrace
 10
31.118
 20
-14.424602
 30
0.0
 11
31.118
 21
-15.127801
 31
0.0
 12
39.321199
 22
-14.424602
 32
0.0
 13
39.321199
 23
-15.127801
 33
0.0
  0
SOLID
  5
4BA
100
AcDbEntity
  8
TOPPASTE
100
AcDbTrace
 10
31.2196
 20
-14.526202
 30
0.0
 11
31.2196
 21
-15.026201
 31
0.0
 12
39.219599
 22
-14.526202
 32
0.0
 13
39.219599
 23
-15.026201
 33
0.0
  0
SOLID
  5
4BB
100
AcDbEntity
  8
TOPLAYER
100
AcDbTrace
 10
31.2196
 20
-14.526202
 30
0.0
 11
31.2196
 21
-15.026201
 31
0.0
 12
39.219599
 22
-14.526202
 32
0.0
 13
39.219599
 23
-15.026201
 33
0.0
  0
SOLID
  5
4BC
100
AcDbEntity
  8
TOPSOLDER
100
AcDbTrace
 10
31.118
 20
-13.424601
 30
0.0
 11
31.118
 21
-14.1278
 31
0.0
 12
39.321199
 22
-13.424601
 32
0.0
 13
39.321199
 23
-14.1278
 33
0.0
  0
SOLID
  5
4BD
100
AcDbEntity
  8
TOPPASTE
100
AcDbTrace
 10
31.2196
 20
-13.526201
 30
0.0
 11
31.2196
 21
-14.0262
 31
0.0
 12
39.219599
 22
-13.526201
 32
0.0
 13
39.219599
 23
-14.0262
 33
0.0
  0
SOLID
  5
4BE
100
AcDbEntity
  8
TOPLAYER
100
AcDbTrace
 10
31.2196
 20
-13.526201
 30
0.0
 11
31.2196
 21
-14.0262
 31
0.0
 12
39.219599
 22
-13.526201
 32
0.0
 13
39.219599
 23
-14.0262
 33
0.0
  0
SOLID
  5
4BF
100
AcDbEntity
  8
TOPSOLDER
100
AcDbTrace
 10
31.118
 20
-12.424601
 30
0.0
 11
31.118
 21
-13.127799
 31
0.0
 12
39.321199
 22
-12.424601
 32
0.0
 13
39.321199
 23
-13.127799
 33
0.0
  0
SOLID
  5
4C0
100
AcDbEntity
  8
TOPPASTE
100
AcDbTrace
 10
31.2196
 20
-12.5262
 30
0.0
 11
31.2196
 21
-13.0262
 31
0.0
 12
39.219599
 22
-12.5262
 32
0.0
 13
39.219599
 23
-13.0262
 33
0.0
  0
SOLID
  5
4C1
100
AcDbEntity
  8
TOPLAYER
100
AcDbTrace
 10
31.2196
 20
-12.5262
 30
0.0
 11
31.2196
 21
-13.0262
 31
0.0
 12
39.219599
 22
-12.5262
 32
0.0
 13
39.219599
 23
-13.0262
 33
0.0
  0
SOLID
  5
4C2
100
AcDbEntity
  8
TOPSOLDER
100
AcDbTrace
 10
31.118
 20
-47.874601
 30
0.0
 11
31.118
 21
-50.077802
 31
0.0
 12
39.321199
 22
-47.874601
 32
0.0
 13
39.321199
 23
-50.077802
 33
0.0
  0
SOLID
  5
4C3
100
AcDbEntity
  8
TOPPASTE
100
AcDbTrace
 10
31.2196
 20
-47.976201
 30
0.0
 11
31.2196
 21
-49.976202
 31
0.0
 12
39.219599
 22
-47.976201
 32
0.0
 13
39.219599
 23
-49.976202
 33
0.0
  0
SOLID
  5
4C4
100
AcDbEntity
  8
TOPLAYER
100
AcDbTrace
 10
31.2196
 20
-47.976201
 30
0.0
 11
31.2196
 21
-49.976202
 31
0.0
 12
39.219599
 22
-47.976201
 32
0.0
 13
39.219599
 23
-49.976202
 33
0.0
  0
ENDBLK
  5
4C5
100
AcDbEntity
  8
0
100
AcDbBlockEnd
  0
BLOCK
  5
4CA
100
AcDbEntity
  8
0
100
AcDbBlockBegin
  2
IDC34_4
 70
     0
 10
0.0
 20
0.0
 30
0.0
  3
IDC34_4
  1

  0
POLYLINE
  5
4CB
100
AcDbEntity
  8
TOPOVERLAY
100
AcDb2dPolyline
 66
     1
 10
0.0
 20
0.0
 30
0.0
 40
0.3048
 41
0.3048
 75
     8
  0
VERTEX
  5
4CC
100
AcDbEntity
  8
TOPOVERLAY
100
AcDbVertex
100
AcDb2dVertex
 10
-1.27
 20
3.81
 30
0.0
  0
VERTEX
  5
4CD
100
AcDbEntity
  8
TOPOVERLAY
100
AcDbVertex
100
AcDb2dVertex
 10
-1.27
 20
-1.27
 30
0.0
  0
SEQEND
  5
4CE
100
AcDbEntity
  8
0
  0
POLYLINE
  5
4CF
100
AcDbEntity
  8
TOPOVERLAY
100
AcDb2dPolyline
 66
     1
 10
0.0
 20
0.0
 30
0.0
 70
     1
 40
0.1524
 41
0.1524
 75
     8
  0
VERTEX
  5
4D0
100
AcDbEntity
  8
TOPOVERLAY
100
AcDbVertex
100
AcDb2dVertex
 10
-1.3462
 20
3.81
 30
0.0
 42
1.0
  0
VERTEX
  5
4D1
100
AcDbEntity
  8
TOPOVERLAY
100
AcDbVertex
100
AcDb2dVertex
 10
-1.1938
 20
3.81
 30
0.0
 42
1.0
  0
SEQEND
  5
4D2
100
AcDbEntity
  8
0
  0
POLYLINE
  5
4D3
100
AcDbEntity
  8
TOPOVERLAY
100
AcDb2dPolyline
 66
     1
 10
0.0
 20
0.0
 30
0.0
 70
     1
 40
0.1524
 41
0.1524
 75
     8
  0
VERTEX
  5
4D4
100
AcDbEntity
  8
TOPOVERLAY
100
AcDbVertex
100
AcDb2dVertex
 10
-1.3462
 20
-1.27
 30
0.0
 42
1.0
  0
VERTEX
  5
4D5
100
AcDbEntity
  8
TOPOVERLAY
100
AcDbVertex
100
AcDb2dVertex
 10
-1.1938
 20
-1.27
 30
0.0
 42
1.0
  0
SEQEND
  5
4D6
100
AcDbEntity
  8
0
  0
POLYLINE
  5
4D7
100
AcDbEntity
  8
TOPOVERLAY
100
AcDb2dPolyline
 66
     1
 10
0.0
 20
0.0
 30
0.0
 40
0.3048
 41
0.3048
 75
     8
  0
VERTEX
  5
4D8
100
AcDbEntity
  8
TOPOVERLAY
100
AcDbVertex
100
AcDb2dVertex
 10
41.9
 20
3.8
 30
0.0
  0
VERTEX
  5
4D9
100
AcDbEntity
  8
TOPOVERLAY
100
AcDbVertex
100
AcDb2dVertex
 10
41.9
 20
-1.28
 30
0.0
  0
SEQEND
  5
4DA
100
AcDbEntity
  8
0
  0
POLYLINE
  5
4DB
100
AcDbEntity
  8
TOPOVERLAY
100
AcDb2dPolyline
 66
     1
 10
0.0
 20
0.0
 30
0.0
 70
     1
 40
0.1524
 41
0.1524
 75
     8
  0
VERTEX
  5
4DC
100
AcDbEntity
  8
TOPOVERLAY
100
AcDbVertex
100
AcDb2dVertex
 10
41.8238
 20
3.8
 30
0.0
 42
1.0
  0
VERTEX
  5
4DD
100
AcDbEntity
  8
TOPOVERLAY
100
AcDbVertex
100
AcDb2dVertex
 10
41.9762
 20
3.8
 30
0.0
 42
1.0
  0
SEQEND
  5
4DE
100
AcDbEntity
  8
0
  0
POLYLINE
  5
4DF
100
AcDbEntity
  8
TOPOVERLAY
100
AcDb2dPolyline
 66
     1
 10
0.0
 20
0.0
 30
0.0
 70
     1
 40
0.1524
 41
0.1524
 75
     8
  0
VERTEX
  5
4E0
100
AcDbEntity
  8
TOPOVERLAY
100
AcDbVertex
100
AcDb2dVertex
 10
41.8238
 20
-1.28
 30
0.0
 42
1.0
  0
VERTEX
  5
4E1
100
AcDbEntity
  8
TOPOVERLAY
100
AcDbVertex
100
AcDb2dVertex
 10
41.9762
 20
-1.28
 30
0.0
 42
1.0
  0
SEQEND
  5
4E2
100
AcDbEntity
  8
0
  0
POLYLINE
  5
4E3
100
AcDbEntity
  8
TOPOVERLAY
100
AcDb2dPolyline
 66
     1
 10
0.0
 20
0.0
 30
0.0
 40
0.3048
 41
0.3048
 75
     8
  0
VERTEX
  5
4E4
100
AcDbEntity
  8
TOPOVERLAY
100
AcDbVertex
100
AcDb2dVertex
 10
-1.27
 20
1.27
 30
0.0
  0
VERTEX
  5
4E5
100
AcDbEntity
  8
TOPOVERLAY
100
AcDbVertex
100
AcDb2dVertex
 10
1.27
 20
1.27
 30
0.0
  0
SEQEND
  5
4E6
100
AcDbEntity
  8
0
  0
POLYLINE
  5
4E7
100
AcDbEntity
  8
TOPOVERLAY
100
AcDb2dPolyline
 66
     1
 10
0.0
 20
0.0
 30
0.0
 70
     1
 40
0.1524
 41
0.1524
 75
     8
  0
VERTEX
  5
4E8
100
AcDbEntity
  8
TOPOVERLAY
100
AcDbVertex
100
AcDb2dVertex
 10
-1.3462
 20
1.27
 30
0.0
 42
1.0
  0
VERTEX
  5
4E9
100
AcDbEntity
  8
TOPOVERLAY
100
AcDbVertex
100
AcDb2dVertex
 10
-1.1938
 20
1.27
 30
0.0
 42
1.0
  0
SEQEND
  5
4EA
100
AcDbEntity
  8
0
  0
POLYLINE
  5
4EB
100
AcDbEntity
  8
TOPOVERLAY
100
AcDb2dPolyline
 66
     1
 10
0.0
 20
0.0
 30
0.0
 70
     1
 40
0.1524
 41
0.1524
 75
     8
  0
VERTEX
  5
4EC
100
AcDbEntity
  8
TOPOVERLAY
100
AcDbVertex
100
AcDb2dVertex
 10
1.1938
 20
1.27
 30
0.0
 42
1.0
  0
VERTEX
  5
4ED
100
AcDbEntity
  8
TOPOVERLAY
100
AcDbVertex
100
AcDb2dVertex
 10
1.3462
 20
1.27
 30
0.0
 42
1.0
  0
SEQEND
  5
4EE
100
AcDbEntity
  8
0
  0
POLYLINE
  5
4EF
100
AcDbEntity
  8
TOPOVERLAY
100
AcDb2dPolyline
 66
     1
 10
0.0
 20
0.0
 30
0.0
 40
0.3048
 41
0.3048
 75
     8
  0
VERTEX
  5
4F0
100
AcDbEntity
  8
TOPOVERLAY
100
AcDbVertex
100
AcDb2dVertex
 10
1.27
 20
1.27
 30
0.0
  0
VERTEX
  5
4F1
100
AcDbEntity
  8
TOPOVERLAY
100
AcDbVertex
100
AcDb2dVertex
 10
1.27
 20
-1.27
 30
0.0
  0
SEQEND
  5
4F2
100
AcDbEntity
  8
0
  0
POLYLINE
  5
4F3
100
AcDbEntity
  8
TOPOVERLAY
100
AcDb2dPolyline
 66
     1
 10
0.0
 20
0.0
 30
0.0
 70
     1
 40
0.1524
 41
0.1524
 75
     8
  0
VERTEX
  5
4F4
100
AcDbEntity
  8
TOPOVERLAY
100
AcDbVertex
100
AcDb2dVertex
 10
1.1938
 20
1.27
 30
0.0
 42
1.0
  0
VERTEX
  5
4F5
100
AcDbEntity
  8
TOPOVERLAY
100
AcDbVertex
100
AcDb2dVertex
 10
1.3462
 20
1.27
 30
0.0
 42
1.0
  0
SEQEND
  5
4F6
100
AcDbEntity
  8
0
  0
POLYLINE
  5
4F7
100
AcDbEntity
  8
TOPOVERLAY
100
AcDb2dPolyline
 66
     1
 10
0.0
 20
0.0
 30
0.0
 70
     1
 40
0.1524
 41
0.1524
 75
     8
  0
VERTEX
  5
4F8
100
AcDbEntity
  8
TOPOVERLAY
100
AcDbVertex
100
AcDb2dVertex
 10
1.1938
 20
-1.27
 30
0.0
 42
1.0
  0
VERTEX
  5
4F9
100
AcDbEntity
  8
TOPOVERLAY
100
AcDbVertex
100
AcDb2dVertex
 10
1.3462
 20
-1.27
 30
0.0
 42
1.0
  0
SEQEND
  5
4FA
100
AcDbEntity
  8
0
  0
POLYLINE
  5
4FB
100
AcDbEntity
  8
TOPOVERLAY
100
AcDb2dPolyline
 66
     1
 10
0.0
 20
0.0
 30
0.0
 40
0.3048
 41
0.3048
 75
     8
  0
VERTEX
  5
4FC
100
AcDbEntity
  8
TOPOVERLAY
100
AcDbVertex
100
AcDb2dVertex
 10
-1.26
 20
-1.28
 30
0.0
  0
VERTEX
  5
4FD
100
AcDbEntity
  8
TOPOVERLAY
100
AcDbVertex
100
AcDb2dVertex
 10
41.9
 20
-1.28
 30
0.0
  0
SEQEND
  5
4FE
100
AcDbEntity
  8
0
  0
POLYLINE
  5
4FF
100
AcDbEntity
  8
TOPOVERLAY
100
AcDb2dPolyline
 66
     1
 10
0.0
 20
0.0
 30
0.0
 70
     1
 40
0.1524
 41
0.1524
 75
     8
  0
VERTEX
  5
500
100
AcDbEntity
  8
TOPOVERLAY
100
AcDbVertex
100
AcDb2dVertex
 10
-1.3362
 20
-1.28
 30
0.0
 42
1.0
  0
VERTEX
  5
501
100
AcDbEntity
  8
TOPOVERLAY
100
AcDbVertex
100
AcDb2dVertex
 10
-1.1838
 20
-1.28
 30
0.0
 42
1.0
  0
SEQEND
  5
502
100
AcDbEntity
  8
0
  0
POLYLINE
  5
503
100
AcDbEntity
  8
TOPOVERLAY
100
AcDb2dPolyline
 66
     1
 10
0.0
 20
0.0
 30
0.0
 70
     1
 40
0.1524
 41
0.1524
 75
     8
  0
VERTEX
  5
504
100
AcDbEntity
  8
TOPOVERLAY
100
AcDbVertex
100
AcDb2dVertex
 10
41.8238
 20
-1.28
 30
0.0
 42
1.0
  0
VERTEX
  5
505
100
AcDbEntity
  8
TOPOVERLAY
100
AcDbVertex
100
AcDb2dVertex
 10
41.9762
 20
-1.28
 30
0.0
 42
1.0
  0
SEQEND
  5
506
100
AcDbEntity
  8
0
  0
POLYLINE
  5
507
100
AcDbEntity
  8
TOPOVERLAY
100
AcDb2dPolyline
 66
     1
 10
0.0
 20
0.0
 30
0.0
 40
0.3048
 41
0.3048
 75
     8
  0
VERTEX
  5
508
100
AcDbEntity
  8
TOPOVERLAY
100
AcDbVertex
100
AcDb2dVertex
 10
-1.27
 20
3.81
 30
0.0
  0
VERTEX
  5
509
100
AcDbEntity
  8
TOPOVERLAY
100
AcDbVertex
100
AcDb2dVertex
 10
41.89
 20
3.81
 30
0.0
  0
SEQEND
  5
50A
100
AcDbEntity
  8
0
  0
POLYLINE
  5
50B
100
AcDbEntity
  8
TOPOVERLAY
100
AcDb2dPolyline
 66
     1
 10
0.0
 20
0.0
 30
0.0
 70
     1
 40
0.1524
 41
0.1524
 75
     8
  0
VERTEX
  5
50C
100
AcDbEntity
  8
TOPOVERLAY
100
AcDbVertex
100
AcDb2dVertex
 10
-1.3462
 20
3.81
 30
0.0
 42
1.0
  0
VERTEX
  5
50D
100
AcDbEntity
  8
TOPOVERLAY
100
AcDbVertex
100
AcDb2dVertex
 10
-1.1938
 20
3.81
 30
0.0
 42
1.0
  0
SEQEND
  5
50E
100
AcDbEntity
  8
0
  0
POLYLINE
  5
50F
100
AcDbEntity
  8
TOPOVERLAY
100
AcDb2dPolyline
 66
     1
 10
0.0
 20
0.0
 30
0.0
 70
     1
 40
0.1524
 41
0.1524
 75
     8
  0
VERTEX
  5
510
100
AcDbEntity
  8
TOPOVERLAY
100
AcDbVertex
100
AcDb2dVertex
 10
41.8138
 20
3.81
 30
0.0
 42
1.0
  0
VERTEX
  5
511
100
AcDbEntity
  8
TOPOVERLAY
100
AcDbVertex
100
AcDb2dVertex
 10
41.9662
 20
3.81
 30
0.0
 42
1.0
  0
SEQEND
  5
512
100
AcDbEntity
  8
0
  0
SOLID
  5
513
100
AcDbEntity
  8
TOPSOLDER
100
AcDbTrace
 10
-0.851598
 20
-0.851598
 30
0.0
 11
0.851598
 21
-0.851598
 31
0.0
 12
-0.851598
 22
0.851598
 32
0.0
 13
0.851598
 23
0.851598
 33
0.0
  0
SOLID
  5
514
100
AcDbEntity
  8
BOTTOMSOLDER
100
AcDbTrace
 10
-0.851598
 20
-0.851598
 30
0.0
 11
0.851598
 21
-0.851598
 31
0.0
 12
-0.851598
 22
0.851598
 32
0.0
 13
0.851598
 23
0.851598
 33
0.0
  0
SOLID
  5
515
100
AcDbEntity
  8
MULTILAYER
100
AcDbTrace
 10
-0.749999
 20
-0.749999
 30
0.0
 11
0.749999
 21
-0.749999
 31
0.0
 12
-0.749999
 22
0.749999
 32
0.0
 13
0.749999
 23
0.749999
 33
0.0
  0
POLYLINE
  5
516
100
AcDbEntity
  8
TOPSOLDER
100
AcDb2dPolyline
 66
     1
 10
0.0
 20
0.0
 30
0.0
 70
     1
 40
0.851598
 41
0.851598
 75
     8
  0
VERTEX
  5
517
100
AcDbEntity
  8
TOPSOLDER
100
AcDbVertex
100
AcDb2dVertex
 10
-0.425801
 20
2.54
 30
0.0
 42
1.0
  0
VERTEX
  5
518
100
AcDbEntity
  8
TOPSOLDER
100
AcDbVertex
100
AcDb2dVertex
 10
0.425801
 20
2.54
 30
0.0
 42
1.0
  0
SEQEND
  5
519
100
AcDbEntity
  8
0
  0
POLYLINE
  5
51A
100
AcDbEntity
  8
BOTTOMSOLDER
100
AcDb2dPolyline
 66
     1
 10
0.0
 20
0.0
 30
0.0
 70
     1
 40
0.851598
 41
0.851598
 75
     8
  0
VERTEX
  5
51B
100
AcDbEntity
  8
BOTTOMSOLDER
100
AcDbVertex
100
AcDb2dVertex
 10
-0.425801
 20
2.54
 30
0.0
 42
1.0
  0
VERTEX
  5
51C
100
AcDbEntity
  8
BOTTOMSOLDER
100
AcDbVertex
100
AcDb2dVertex
 10
0.425801
 20
2.54
 30
0.0
 42
1.0
  0
SEQEND
  5
51D
100
AcDbEntity
  8
0
  0
POLYLINE
  5
51E
100
AcDbEntity
  8
MULTILAYER
100
AcDb2dPolyline
 66
     1
 10
0.0
 20
0.0
 30
0.0
 70
     1
 40
0.749999
 41
0.749999
 75
     8
  0
VERTEX
  5
51F
100
AcDbEntity
  8
MULTILAYER
100
AcDbVertex
100
AcDb2dVertex
 10
-0.375001
 20
2.54
 30
0.0
 42
1.0
  0
VERTEX
  5
520
100
AcDbEntity
  8
MULTILAYER
100
AcDbVertex
100
AcDb2dVertex
 10
0.375001
 20
2.54
 30
0.0
 42
1.0
  0
SEQEND
  5
521
100
AcDbEntity
  8
0
  0
POLYLINE
  5
522
100
AcDbEntity
  8
TOPSOLDER
100
AcDb2dPolyline
 66
     1
 10
0.0
 20
0.0
 30
0.0
 70
     1
 40
0.851598
 41
0.851598
 75
     8
  0
VERTEX
  5
523
100
AcDbEntity
  8
TOPSOLDER
100
AcDbVertex
100
AcDb2dVertex
 10
2.114199
 20
0.0
 30
0.0
 42
1.0
  0
VERTEX
  5
524
100
AcDbEntity
  8
TOPSOLDER
100
AcDbVertex
100
AcDb2dVertex
 10
2.965801
 20
0.0
 30
0.0
 42
1.0
  0
SEQEND
  5
525
100
AcDbEntity
  8
0
  0
POLYLINE
  5
526
100
AcDbEntity
  8
BOTTOMSOLDER
100
AcDb2dPolyline
 66
     1
 10
0.0
 20
0.0
 30
0.0
 70
     1
 40
0.851598
 41
0.851598
 75
     8
  0
VERTEX
  5
527
100
AcDbEntity
  8
BOTTOMSOLDER
100
AcDbVertex
100
AcDb2dVertex
 10
2.114199
 20
0.0
 30
0.0
 42
1.0
  0
VERTEX
  5
528
100
AcDbEntity
  8
BOTTOMSOLDER
100
AcDbVertex
100
AcDb2dVertex
 10
2.965801
 20
0.0
 30
0.0
 42
1.0
  0
SEQEND
  5
529
100
AcDbEntity
  8
0
  0
POLYLINE
  5
52A
100
AcDbEntity
  8
MULTILAYER
100
AcDb2dPolyline
 66
     1
 10
0.0
 20
0.0
 30
0.0
 70
     1
 40
0.749999
 41
0.749999
 75
     8
  0
VERTEX
  5
52B
100
AcDbEntity
  8
MULTILAYER
100
AcDbVertex
100
AcDb2dVertex
 10
2.164999
 20
0.0
 30
0.0
 42
1.0
  0
VERTEX
  5
52C
100
AcDbEntity
  8
MULTILAYER
100
AcDbVertex
100
AcDb2dVertex
 10
2.915001
 20
0.0
 30
0.0
 42
1.0
  0
SEQEND
  5
52D
100
AcDbEntity
  8
0
  0
POLYLINE
  5
52E
100
AcDbEntity
  8
TOPSOLDER
100
AcDb2dPolyline
 66
     1
 10
0.0
 20
0.0
 30
0.0
 70
     1
 40
0.851598
 41
0.851598
 75
     8
  0
VERTEX
  5
52F
100
AcDbEntity
  8
TOPSOLDER
100
AcDbVertex
100
AcDb2dVertex
 10
2.114199
 20
2.54
 30
0.0
 42
1.0
  0
VERTEX
  5
530
100
AcDbEntity
  8
TOPSOLDER
100
AcDbVertex
100
AcDb2dVertex
 10
2.965801
 20
2.54
 30
0.0
 42
1.0
  0
SEQEND
  5
531
100
AcDbEntity
  8
0
  0
POLYLINE
  5
532
100
AcDbEntity
  8
BOTTOMSOLDER
100
AcDb2dPolyline
 66
     1
 10
0.0
 20
0.0
 30
0.0
 70
     1
 40
0.851598
 41
0.851598
 75
     8
  0
VERTEX
  5
533
100
AcDbEntity
  8
BOTTOMSOLDER
100
AcDbVertex
100
AcDb2dVertex
 10
2.114199
 20
2.54
 30
0.0
 42
1.0
  0
VERTEX
  5
534
100
AcDbEntity
  8
BOTTOMSOLDER
100
AcDbVertex
100
AcDb2dVertex
 10
2.965801
 20
2.54
 30
0.0
 42
1.0
  0
SEQEND
  5
535
100
AcDbEntity
  8
0
  0
POLYLINE
  5
536
100
AcDbEntity
  8
MULTILAYER
100
AcDb2dPolyline
 66
     1
 10
0.0
 20
0.0
 30
0.0
 70
     1
 40
0.749999
 41
0.749999
 75
     8
  0
VERTEX
  5
537
100
AcDbEntity
  8
MULTILAYER
100
AcDbVertex
100
AcDb2dVertex
 10
2.164999
 20
2.54
 30
0.0
 42
1.0
  0
VERTEX
  5
538
100
AcDbEntity
  8
MULTILAYER
100
AcDbVertex
100
AcDb2dVertex
 10
2.915001
 20
2.54
 30
0.0
 42
1.0
  0
SEQEND
  5
539
100
AcDbEntity
  8
0
  0
POLYLINE
  5
53A
100
AcDbEntity
  8
TOPSOLDER
100
AcDb2dPolyline
 66
     1
 10
0.0
 20
0.0
 30
0.0
 70
     1
 40
0.851598
 41
0.851598
 75
     8
  0
VERTEX
  5
53B
100
AcDbEntity
  8
TOPSOLDER
100
AcDbVertex
100
AcDb2dVertex
 10
4.654199
 20
0.0
 30
0.0
 42
1.0
  0
VERTEX
  5
53C
100
AcDbEntity
  8
TOPSOLDER
100
AcDbVertex
100
AcDb2dVertex
 10
5.505801
 20
0.0
 30
0.0
 42
1.0
  0
SEQEND
  5
53D
100
AcDbEntity
  8
0
  0
POLYLINE
  5
53E
100
AcDbEntity
  8
BOTTOMSOLDER
100
AcDb2dPolyline
 66
     1
 10
0.0
 20
0.0
 30
0.0
 70
     1
 40
0.851598
 41
0.851598
 75
     8
  0
VERTEX
  5
53F
100
AcDbEntity
  8
BOTTOMSOLDER
100
AcDbVertex
100
AcDb2dVertex
 10
4.654199
 20
0.0
 30
0.0
 42
1.0
  0
VERTEX
  5
540
100
AcDbEntity
  8
BOTTOMSOLDER
100
AcDbVertex
100
AcDb2dVertex
 10
5.505801
 20
0.0
 30
0.0
 42
1.0
  0
SEQEND
  5
541
100
AcDbEntity
  8
0
  0
POLYLINE
  5
542
100
AcDbEntity
  8
MULTILAYER
100
AcDb2dPolyline
 66
     1
 10
0.0
 20
0.0
 30
0.0
 70
     1
 40
0.749999
 41
0.749999
 75
     8
  0
VERTEX
  5
543
100
AcDbEntity
  8
MULTILAYER
100
AcDbVertex
100
AcDb2dVertex
 10
4.704999
 20
0.0
 30
0.0
 42
1.0
  0
VERTEX
  5
544
100
AcDbEntity
  8
MULTILAYER
100
AcDbVertex
100
AcDb2dVertex
 10
5.455001
 20
0.0
 30
0.0
 42
1.0
  0
SEQEND
  5
545
100
AcDbEntity
  8
0
  0
POLYLINE
  5
546
100
AcDbEntity
  8
TOPSOLDER
100
AcDb2dPolyline
 66
     1
 10
0.0
 20
0.0
 30
0.0
 70
     1
 40
0.851598
 41
0.851598
 75
     8
  0
VERTEX
  5
547
100
AcDbEntity
  8
TOPSOLDER
100
AcDbVertex
100
AcDb2dVertex
 10
4.654199
 20
2.54
 30
0.0
 42
1.0
  0
VERTEX
  5
548
100
AcDbEntity
  8
TOPSOLDER
100
AcDbVertex
100
AcDb2dVertex
 10
5.505801
 20
2.54
 30
0.0
 42
1.0
  0
SEQEND
  5
549
100
AcDbEntity
  8
0
  0
POLYLINE
  5
54A
100
AcDbEntity
  8
BOTTOMSOLDER
100
AcDb2dPolyline
 66
     1
 10
0.0
 20
0.0
 30
0.0
 70
     1
 40
0.851598
 41
0.851598
 75
     8
  0
VERTEX
  5
54B
100
AcDbEntity
  8
BOTTOMSOLDER
100
AcDbVertex
100
AcDb2dVertex
 10
4.654199
 20
2.54
 30
0.0
 42
1.0
  0
VERTEX
  5
54C
100
AcDbEntity
  8
BOTTOMSOLDER
100
AcDbVertex
100
AcDb2dVertex
 10
5.505801
 20
2.54
 30
0.0
 42
1.0
  0
SEQEND
  5
54D
100
AcDbEntity
  8
0
  0
POLYLINE
  5
54E
100
AcDbEntity
  8
MULTILAYER
100
AcDb2dPolyline
 66
     1
 10
0.0
 20
0.0
 30
0.0
 70
     1
 40
0.749999
 41
0.749999
 75
     8
  0
VERTEX
  5
54F
100
AcDbEntity
  8
MULTILAYER
100
AcDbVertex
100
AcDb2dVertex
 10
4.704999
 20
2.54
 30
0.0
 42
1.0
  0
VERTEX
  5
550
100
AcDbEntity
  8
MULTILAYER
100
AcDbVertex
100
AcDb2dVertex
 10
5.455001
 20
2.54
 30
0.0
 42
1.0
  0
SEQEND
  5
551
100
AcDbEntity
  8
0
  0
POLYLINE
  5
552
100
AcDbEntity
  8
TOPSOLDER
100
AcDb2dPolyline
 66
     1
 10
0.0
 20
0.0
 30
0.0
 70
     1
 40
0.851598
 41
0.851598
 75
     8
  0
VERTEX
  5
553
100
AcDbEntity
  8
TOPSOLDER
100
AcDbVertex
100
AcDb2dVertex
 10
7.194199
 20
0.0
 30
0.0
 42
1.0
  0
VERTEX
  5
554
100
AcDbEntity
  8
TOPSOLDER
100
AcDbVertex
100
AcDb2dVertex
 10
8.045801
 20
0.0
 30
0.0
 42
1.0
  0
SEQEND
  5
555
100
AcDbEntity
  8
0
  0
POLYLINE
  5
556
100
AcDbEntity
  8
BOTTOMSOLDER
100
AcDb2dPolyline
 66
     1
 10
0.0
 20
0.0
 30
0.0
 70
     1
 40
0.851598
 41
0.851598
 75
     8
  0
VERTEX
  5
557
100
AcDbEntity
  8
BOTTOMSOLDER
100
AcDbVertex
100
AcDb2dVertex
 10
7.194199
 20
0.0
 30
0.0
 42
1.0
  0
VERTEX
  5
558
100
AcDbEntity
  8
BOTTOMSOLDER
100
AcDbVertex
100
AcDb2dVertex
 10
8.045801
 20
0.0
 30
0.0
 42
1.0
  0
SEQEND
  5
559
100
AcDbEntity
  8
0
  0
POLYLINE
  5
55A
100
AcDbEntity
  8
MULTILAYER
100
AcDb2dPolyline
 66
     1
 10
0.0
 20
0.0
 30
0.0
 70
     1
 40
0.749999
 41
0.749999
 75
     8
  0
VERTEX
  5
55B
100
AcDbEntity
  8
MULTILAYER
100
AcDbVertex
100
AcDb2dVertex
 10
7.244999
 20
0.0
 30
0.0
 42
1.0
  0
VERTEX
  5
55C
100
AcDbEntity
  8
MULTILAYER
100
AcDbVertex
100
AcDb2dVertex
 10
7.995001
 20
0.0
 30
0.0
 42
1.0
  0
SEQEND
  5
55D
100
AcDbEntity
  8
0
  0
POLYLINE
  5
55E
100
AcDbEntity
  8
TOPSOLDER
100
AcDb2dPolyline
 66
     1
 10
0.0
 20
0.0
 30
0.0
 70
     1
 40
0.851598
 41
0.851598
 75
     8
  0
VERTEX
  5
55F
100
AcDbEntity
  8
TOPSOLDER
100
AcDbVertex
100
AcDb2dVertex
 10
7.194199
 20
2.54
 30
0.0
 42
1.0
  0
VERTEX
  5
560
100
AcDbEntity
  8
TOPSOLDER
100
AcDbVertex
100
AcDb2dVertex
 10
8.045801
 20
2.54
 30
0.0
 42
1.0
  0
SEQEND
  5
561
100
AcDbEntity
  8
0
  0
POLYLINE
  5
562
100
AcDbEntity
  8
BOTTOMSOLDER
100
AcDb2dPolyline
 66
     1
 10
0.0
 20
0.0
 30
0.0
 70
     1
 40
0.851598
 41
0.851598
 75
     8
  0
VERTEX
  5
563
100
AcDbEntity
  8
BOTTOMSOLDER
100
AcDbVertex
100
AcDb2dVertex
 10
7.194199
 20
2.54
 30
0.0
 42
1.0
  0
VERTEX
  5
564
100
AcDbEntity
  8
BOTTOMSOLDER
100
AcDbVertex
100
AcDb2dVertex
 10
8.045801
 20
2.54
 30
0.0
 42
1.0
  0
SEQEND
  5
565
100
AcDbEntity
  8
0
  0
POLYLINE
  5
566
100
AcDbEntity
  8
MULTILAYER
100
AcDb2dPolyline
 66
     1
 10
0.0
 20
0.0
 30
0.0
 70
     1
 40
0.749999
 41
0.749999
 75
     8
  0
VERTEX
  5
567
100
AcDbEntity
  8
MULTILAYER
100
AcDbVertex
100
AcDb2dVertex
 10
7.244999
 20
2.54
 30
0.0
 42
1.0
  0
VERTEX
  5
568
100
AcDbEntity
  8
MULTILAYER
100
AcDbVertex
100
AcDb2dVertex
 10
7.995001
 20
2.54
 30
0.0
 42
1.0
  0
SEQEND
  5
569
100
AcDbEntity
  8
0
  0
POLYLINE
  5
56A
100
AcDbEntity
  8
TOPSOLDER
100
AcDb2dPolyline
 66
     1
 10
0.0
 20
0.0
 30
0.0
 70
     1
 40
0.851598
 41
0.851598
 75
     8
  0
VERTEX
  5
56B
100
AcDbEntity
  8
TOPSOLDER
100
AcDbVertex
100
AcDb2dVertex
 10
9.734199
 20
0.0
 30
0.0
 42
1.0
  0
VERTEX
  5
56C
100
AcDbEntity
  8
TOPSOLDER
100
AcDbVertex
100
AcDb2dVertex
 10
10.585801
 20
0.0
 30
0.0
 42
1.0
  0
SEQEND
  5
56D
100
AcDbEntity
  8
0
  0
POLYLINE
  5
56E
100
AcDbEntity
  8
BOTTOMSOLDER
100
AcDb2dPolyline
 66
     1
 10
0.0
 20
0.0
 30
0.0
 70
     1
 40
0.851598
 41
0.851598
 75
     8
  0
VERTEX
  5
56F
100
AcDbEntity
  8
BOTTOMSOLDER
100
AcDbVertex
100
AcDb2dVertex
 10
9.734199
 20
0.0
 30
0.0
 42
1.0
  0
VERTEX
  5
570
100
AcDbEntity
  8
BOTTOMSOLDER
100
AcDbVertex
100
AcDb2dVertex
 10
10.585801
 20
0.0
 30
0.0
 42
1.0
  0
SEQEND
  5
571
100
AcDbEntity
  8
0
  0
POLYLINE
  5
572
100
AcDbEntity
  8
MULTILAYER
100
AcDb2dPolyline
 66
     1
 10
0.0
 20
0.0
 30
0.0
 70
     1
 40
0.749999
 41
0.749999
 75
     8
  0
VERTEX
  5
573
100
AcDbEntity
  8
MULTILAYER
100
AcDbVertex
100
AcDb2dVertex
 10
9.784999
 20
0.0
 30
0.0
 42
1.0
  0
VERTEX
  5
574
100
AcDbEntity
  8
MULTILAYER
100
AcDbVertex
100
AcDb2dVertex
 10
10.535001
 20
0.0
 30
0.0
 42
1.0
  0
SEQEND
  5
575
100
AcDbEntity
  8
0
  0
POLYLINE
  5
576
100
AcDbEntity
  8
TOPSOLDER
100
AcDb2dPolyline
 66
     1
 10
0.0
 20
0.0
 30
0.0
 70
     1
 40
0.851598
 41
0.851598
 75
     8
  0
VERTEX
  5
577
100
AcDbEntity
  8
TOPSOLDER
100
AcDbVertex
100
AcDb2dVertex
 10
9.734199
 20
2.54
 30
0.0
 42
1.0
  0
VERTEX
  5
578
100
AcDbEntity
  8
TOPSOLDER
100
AcDbVertex
100
AcDb2dVertex
 10
10.585801
 20
2.54
 30
0.0
 42
1.0
  0
SEQEND
  5
579
100
AcDbEntity
  8
0
  0
POLYLINE
  5
57A
100
AcDbEntity
  8
BOTTOMSOLDER
100
AcDb2dPolyline
 66
     1
 10
0.0
 20
0.0
 30
0.0
 70
     1
 40
0.851598
 41
0.851598
 75
     8
  0
VERTEX
  5
57B
100
AcDbEntity
  8
BOTTOMSOLDER
100
AcDbVertex
100
AcDb2dVertex
 10
9.734199
 20
2.54
 30
0.0
 42
1.0
  0
VERTEX
  5
57C
100
AcDbEntity
  8
BOTTOMSOLDER
100
AcDbVertex
100
AcDb2dVertex
 10
10.585801
 20
2.54
 30
0.0
 42
1.0
  0
SEQEND
  5
57D
100
AcDbEntity
  8
0
  0
POLYLINE
  5
57E
100
AcDbEntity
  8
MULTILAYER
100
AcDb2dPolyline
 66
     1
 10
0.0
 20
0.0
 30
0.0
 70
     1
 40
0.749999
 41
0.749999
 75
     8
  0
VERTEX
  5
57F
100
AcDbEntity
  8
MULTILAYER
100
AcDbVertex
100
AcDb2dVertex
 10
9.784999
 20
2.54
 30
0.0
 42
1.0
  0
VERTEX
  5
580
100
AcDbEntity
  8
MULTILAYER
100
AcDbVertex
100
AcDb2dVertex
 10
10.535001
 20
2.54
 30
0.0
 42
1.0
  0
SEQEND
  5
581
100
AcDbEntity
  8
0
  0
POLYLINE
  5
582
100
AcDbEntity
  8
TOPSOLDER
100
AcDb2dPolyline
 66
     1
 10
0.0
 20
0.0
 30
0.0
 70
     1
 40
0.851598
 41
0.851598
 75
     8
  0
VERTEX
  5
583
100
AcDbEntity
  8
TOPSOLDER
100
AcDbVertex
100
AcDb2dVertex
 10
12.274199
 20
0.0
 30
0.0
 42
1.0
  0
VERTEX
  5
584
100
AcDbEntity
  8
TOPSOLDER
100
AcDbVertex
100
AcDb2dVertex
 10
13.125801
 20
0.0
 30
0.0
 42
1.0
  0
SEQEND
  5
585
100
AcDbEntity
  8
0
  0
POLYLINE
  5
586
100
AcDbEntity
  8
BOTTOMSOLDER
100
AcDb2dPolyline
 66
     1
 10
0.0
 20
0.0
 30
0.0
 70
     1
 40
0.851598
 41
0.851598
 75
     8
  0
VERTEX
  5
587
100
AcDbEntity
  8
BOTTOMSOLDER
100
AcDbVertex
100
AcDb2dVertex
 10
12.274199
 20
0.0
 30
0.0
 42
1.0
  0
VERTEX
  5
588
100
AcDbEntity
  8
BOTTOMSOLDER
100
AcDbVertex
100
AcDb2dVertex
 10
13.125801
 20
0.0
 30
0.0
 42
1.0
  0
SEQEND
  5
589
100
AcDbEntity
  8
0
  0
POLYLINE
  5
58A
100
AcDbEntity
  8
MULTILAYER
100
AcDb2dPolyline
 66
     1
 10
0.0
 20
0.0
 30
0.0
 70
     1
 40
0.749999
 41
0.749999
 75
     8
  0
VERTEX
  5
58B
100
AcDbEntity
  8
MULTILAYER
100
AcDbVertex
100
AcDb2dVertex
 10
12.324999
 20
0.0
 30
0.0
 42
1.0
  0
VERTEX
  5
58C
100
AcDbEntity
  8
MULTILAYER
100
AcDbVertex
100
AcDb2dVertex
 10
13.075001
 20
0.0
 30
0.0
 42
1.0
  0
SEQEND
  5
58D
100
AcDbEntity
  8
0
  0
POLYLINE
  5
58E
100
AcDbEntity
  8
TOPSOLDER
100
AcDb2dPolyline
 66
     1
 10
0.0
 20
0.0
 30
0.0
 70
     1
 40
0.851598
 41
0.851598
 75
     8
  0
VERTEX
  5
58F
100
AcDbEntity
  8
TOPSOLDER
100
AcDbVertex
100
AcDb2dVertex
 10
12.274199
 20
2.54
 30
0.0
 42
1.0
  0
VERTEX
  5
590
100
AcDbEntity
  8
TOPSOLDER
100
AcDbVertex
100
AcDb2dVertex
 10
13.125801
 20
2.54
 30
0.0
 42
1.0
  0
SEQEND
  5
591
100
AcDbEntity
  8
0
  0
POLYLINE
  5
592
100
AcDbEntity
  8
BOTTOMSOLDER
100
AcDb2dPolyline
 66
     1
 10
0.0
 20
0.0
 30
0.0
 70
     1
 40
0.851598
 41
0.851598
 75
     8
  0
VERTEX
  5
593
100
AcDbEntity
  8
BOTTOMSOLDER
100
AcDbVertex
100
AcDb2dVertex
 10
12.274199
 20
2.54
 30
0.0
 42
1.0
  0
VERTEX
  5
594
100
AcDbEntity
  8
BOTTOMSOLDER
100
AcDbVertex
100
AcDb2dVertex
 10
13.125801
 20
2.54
 30
0.0
 42
1.0
  0
SEQEND
  5
595
100
AcDbEntity
  8
0
  0
POLYLINE
  5
596
100
AcDbEntity
  8
MULTILAYER
100
AcDb2dPolyline
 66
     1
 10
0.0
 20
0.0
 30
0.0
 70
     1
 40
0.749999
 41
0.749999
 75
     8
  0
VERTEX
  5
597
100
AcDbEntity
  8
MULTILAYER
100
AcDbVertex
100
AcDb2dVertex
 10
12.324999
 20
2.54
 30
0.0
 42
1.0
  0
VERTEX
  5
598
100
AcDbEntity
  8
MULTILAYER
100
AcDbVertex
100
AcDb2dVertex
 10
13.075001
 20
2.54
 30
0.0
 42
1.0
  0
SEQEND
  5
599
100
AcDbEntity
  8
0
  0
POLYLINE
  5
59A
100
AcDbEntity
  8
TOPSOLDER
100
AcDb2dPolyline
 66
     1
 10
0.0
 20
0.0
 30
0.0
 70
     1
 40
0.851598
 41
0.851598
 75
     8
  0
VERTEX
  5
59B
100
AcDbEntity
  8
TOPSOLDER
100
AcDbVertex
100
AcDb2dVertex
 10
14.814199
 20
0.0
 30
0.0
 42
1.0
  0
VERTEX
  5
59C
100
AcDbEntity
  8
TOPSOLDER
100
AcDbVertex
100
AcDb2dVertex
 10
15.665801
 20
0.0
 30
0.0
 42
1.0
  0
SEQEND
  5
59D
100
AcDbEntity
  8
0
  0
POLYLINE
  5
59E
100
AcDbEntity
  8
BOTTOMSOLDER
100
AcDb2dPolyline
 66
     1
 10
0.0
 20
0.0
 30
0.0
 70
     1
 40
0.851598
 41
0.851598
 75
     8
  0
VERTEX
  5
59F
100
AcDbEntity
  8
BOTTOMSOLDER
100
AcDbVertex
100
AcDb2dVertex
 10
14.814199
 20
0.0
 30
0.0
 42
1.0
  0
VERTEX
  5
5A0
100
AcDbEntity
  8
BOTTOMSOLDER
100
AcDbVertex
100
AcDb2dVertex
 10
15.665801
 20
0.0
 30
0.0
 42
1.0
  0
SEQEND
  5
5A1
100
AcDbEntity
  8
0
  0
POLYLINE
  5
5A2
100
AcDbEntity
  8
MULTILAYER
100
AcDb2dPolyline
 66
     1
 10
0.0
 20
0.0
 30
0.0
 70
     1
 40
0.749999
 41
0.749999
 75
     8
  0
VERTEX
  5
5A3
100
AcDbEntity
  8
MULTILAYER
100
AcDbVertex
100
AcDb2dVertex
 10
14.864999
 20
0.0
 30
0.0
 42
1.0
  0
VERTEX
  5
5A4
100
AcDbEntity
  8
MULTILAYER
100
AcDbVertex
100
AcDb2dVertex
 10
15.615001
 20
0.0
 30
0.0
 42
1.0
  0
SEQEND
  5
5A5
100
AcDbEntity
  8
0
  0
POLYLINE
  5
5A6
100
AcDbEntity
  8
TOPSOLDER
100
AcDb2dPolyline
 66
     1
 10
0.0
 20
0.0
 30
0.0
 70
     1
 40
0.851598
 41
0.851598
 75
     8
  0
VERTEX
  5
5A7
100
AcDbEntity
  8
TOPSOLDER
100
AcDbVertex
100
AcDb2dVertex
 10
14.814199
 20
2.54
 30
0.0
 42
1.0
  0
VERTEX
  5
5A8
100
AcDbEntity
  8
TOPSOLDER
100
AcDbVertex
100
AcDb2dVertex
 10
15.665801
 20
2.54
 30
0.0
 42
1.0
  0
SEQEND
  5
5A9
100
AcDbEntity
  8
0
  0
POLYLINE
  5
5AA
100
AcDbEntity
  8
BOTTOMSOLDER
100
AcDb2dPolyline
 66
     1
 10
0.0
 20
0.0
 30
0.0
 70
     1
 40
0.851598
 41
0.851598
 75
     8
  0
VERTEX
  5
5AB
100
AcDbEntity
  8
BOTTOMSOLDER
100
AcDbVertex
100
AcDb2dVertex
 10
14.814199
 20
2.54
 30
0.0
 42
1.0
  0
VERTEX
  5
5AC
100
AcDbEntity
  8
BOTTOMSOLDER
100
AcDbVertex
100
AcDb2dVertex
 10
15.665801
 20
2.54
 30
0.0
 42
1.0
  0
SEQEND
  5
5AD
100
AcDbEntity
  8
0
  0
POLYLINE
  5
5AE
100
AcDbEntity
  8
MULTILAYER
100
AcDb2dPolyline
 66
     1
 10
0.0
 20
0.0
 30
0.0
 70
     1
 40
0.749999
 41
0.749999
 75
     8
  0
VERTEX
  5
5AF
100
AcDbEntity
  8
MULTILAYER
100
AcDbVertex
100
AcDb2dVertex
 10
14.864999
 20
2.54
 30
0.0
 42
1.0
  0
VERTEX
  5
5B0
100
AcDbEntity
  8
MULTILAYER
100
AcDbVertex
100
AcDb2dVertex
 10
15.615001
 20
2.54
 30
0.0
 42
1.0
  0
SEQEND
  5
5B1
100
AcDbEntity
  8
0
  0
POLYLINE
  5
5B2
100
AcDbEntity
  8
TOPSOLDER
100
AcDb2dPolyline
 66
     1
 10
0.0
 20
0.0
 30
0.0
 70
     1
 40
0.851598
 41
0.851598
 75
     8
  0
VERTEX
  5
5B3
100
AcDbEntity
  8
TOPSOLDER
100
AcDbVertex
100
AcDb2dVertex
 10
17.354199
 20
0.0
 30
0.0
 42
1.0
  0
VERTEX
  5
5B4
100
AcDbEntity
  8
TOPSOLDER
100
AcDbVertex
100
AcDb2dVertex
 10
18.205801
 20
0.0
 30
0.0
 42
1.0
  0
SEQEND
  5
5B5
100
AcDbEntity
  8
0
  0
POLYLINE
  5
5B6
100
AcDbEntity
  8
BOTTOMSOLDER
100
AcDb2dPolyline
 66
     1
 10
0.0
 20
0.0
 30
0.0
 70
     1
 40
0.851598
 41
0.851598
 75
     8
  0
VERTEX
  5
5B7
100
AcDbEntity
  8
BOTTOMSOLDER
100
AcDbVertex
100
AcDb2dVertex
 10
17.354199
 20
0.0
 30
0.0
 42
1.0
  0
VERTEX
  5
5B8
100
AcDbEntity
  8
BOTTOMSOLDER
100
AcDbVertex
100
AcDb2dVertex
 10
18.205801
 20
0.0
 30
0.0
 42
1.0
  0
SEQEND
  5
5B9
100
AcDbEntity
  8
0
  0
POLYLINE
  5
5BA
100
AcDbEntity
  8
MULTILAYER
100
AcDb2dPolyline
 66
     1
 10
0.0
 20
0.0
 30
0.0
 70
     1
 40
0.749999
 41
0.749999
 75
     8
  0
VERTEX
  5
5BB
100
AcDbEntity
  8
MULTILAYER
100
AcDbVertex
100
AcDb2dVertex
 10
17.404999
 20
0.0
 30
0.0
 42
1.0
  0
VERTEX
  5
5BC
100
AcDbEntity
  8
MULTILAYER
100
AcDbVertex
100
AcDb2dVertex
 10
18.155001
 20
0.0
 30
0.0
 42
1.0
  0
SEQEND
  5
5BD
100
AcDbEntity
  8
0
  0
POLYLINE
  5
5BE
100
AcDbEntity
  8
TOPSOLDER
100
AcDb2dPolyline
 66
     1
 10
0.0
 20
0.0
 30
0.0
 70
     1
 40
0.851598
 41
0.851598
 75
     8
  0
VERTEX
  5
5BF
100
AcDbEntity
  8
TOPSOLDER
100
AcDbVertex
100
AcDb2dVertex
 10
17.354199
 20
2.54
 30
0.0
 42
1.0
  0
VERTEX
  5
5C0
100
AcDbEntity
  8
TOPSOLDER
100
AcDbVertex
100
AcDb2dVertex
 10
18.205801
 20
2.54
 30
0.0
 42
1.0
  0
SEQEND
  5
5C1
100
AcDbEntity
  8
0
  0
POLYLINE
  5
5C2
100
AcDbEntity
  8
BOTTOMSOLDER
100
AcDb2dPolyline
 66
     1
 10
0.0
 20
0.0
 30
0.0
 70
     1
 40
0.851598
 41
0.851598
 75
     8
  0
VERTEX
  5
5C3
100
AcDbEntity
  8
BOTTOMSOLDER
100
AcDbVertex
100
AcDb2dVertex
 10
17.354199
 20
2.54
 30
0.0
 42
1.0
  0
VERTEX
  5
5C4
100
AcDbEntity
  8
BOTTOMSOLDER
100
AcDbVertex
100
AcDb2dVertex
 10
18.205801
 20
2.54
 30
0.0
 42
1.0
  0
SEQEND
  5
5C5
100
AcDbEntity
  8
0
  0
POLYLINE
  5
5C6
100
AcDbEntity
  8
MULTILAYER
100
AcDb2dPolyline
 66
     1
 10
0.0
 20
0.0
 30
0.0
 70
     1
 40
0.749999
 41
0.749999
 75
     8
  0
VERTEX
  5
5C7
100
AcDbEntity
  8
MULTILAYER
100
AcDbVertex
100
AcDb2dVertex
 10
17.404999
 20
2.54
 30
0.0
 42
1.0
  0
VERTEX
  5
5C8
100
AcDbEntity
  8
MULTILAYER
100
AcDbVertex
100
AcDb2dVertex
 10
18.155001
 20
2.54
 30
0.0
 42
1.0
  0
SEQEND
  5
5C9
100
AcDbEntity
  8
0
  0
POLYLINE
  5
5CA
100
AcDbEntity
  8
TOPSOLDER
100
AcDb2dPolyline
 66
     1
 10
0.0
 20
0.0
 30
0.0
 70
     1
 40
0.851598
 41
0.851598
 75
     8
  0
VERTEX
  5
5CB
100
AcDbEntity
  8
TOPSOLDER
100
AcDbVertex
100
AcDb2dVertex
 10
19.894199
 20
0.0
 30
0.0
 42
1.0
  0
VERTEX
  5
5CC
100
AcDbEntity
  8
TOPSOLDER
100
AcDbVertex
100
AcDb2dVertex
 10
20.745801
 20
0.0
 30
0.0
 42
1.0
  0
SEQEND
  5
5CD
100
AcDbEntity
  8
0
  0
POLYLINE
  5
5CE
100
AcDbEntity
  8
BOTTOMSOLDER
100
AcDb2dPolyline
 66
     1
 10
0.0
 20
0.0
 30
0.0
 70
     1
 40
0.851598
 41
0.851598
 75
     8
  0
VERTEX
  5
5CF
100
AcDbEntity
  8
BOTTOMSOLDER
100
AcDbVertex
100
AcDb2dVertex
 10
19.894199
 20
0.0
 30
0.0
 42
1.0
  0
VERTEX
  5
5D0
100
AcDbEntity
  8
BOTTOMSOLDER
100
AcDbVertex
100
AcDb2dVertex
 10
20.745801
 20
0.0
 30
0.0
 42
1.0
  0
SEQEND
  5
5D1
100
AcDbEntity
  8
0
  0
POLYLINE
  5
5D2
100
AcDbEntity
  8
MULTILAYER
100
AcDb2dPolyline
 66
     1
 10
0.0
 20
0.0
 30
0.0
 70
     1
 40
0.749999
 41
0.749999
 75
     8
  0
VERTEX
  5
5D3
100
AcDbEntity
  8
MULTILAYER
100
AcDbVertex
100
AcDb2dVertex
 10
19.944999
 20
0.0
 30
0.0
 42
1.0
  0
VERTEX
  5
5D4
100
AcDbEntity
  8
MULTILAYER
100
AcDbVertex
100
AcDb2dVertex
 10
20.695001
 20
0.0
 30
0.0
 42
1.0
  0
SEQEND
  5
5D5
100
AcDbEntity
  8
0
  0
POLYLINE
  5
5D6
100
AcDbEntity
  8
TOPSOLDER
100
AcDb2dPolyline
 66
     1
 10
0.0
 20
0.0
 30
0.0
 70
     1
 40
0.851598
 41
0.851598
 75
     8
  0
VERTEX
  5
5D7
100
AcDbEntity
  8
TOPSOLDER
100
AcDbVertex
100
AcDb2dVertex
 10
19.894199
 20
2.54
 30
0.0
 42
1.0
  0
VERTEX
  5
5D8
100
AcDbEntity
  8
TOPSOLDER
100
AcDbVertex
100
AcDb2dVertex
 10
20.745801
 20
2.54
 30
0.0
 42
1.0
  0
SEQEND
  5
5D9
100
AcDbEntity
  8
0
  0
POLYLINE
  5
5DA
100
AcDbEntity
  8
BOTTOMSOLDER
100
AcDb2dPolyline
 66
     1
 10
0.0
 20
0.0
 30
0.0
 70
     1
 40
0.851598
 41
0.851598
 75
     8
  0
VERTEX
  5
5DB
100
AcDbEntity
  8
BOTTOMSOLDER
100
AcDbVertex
100
AcDb2dVertex
 10
19.894199
 20
2.54
 30
0.0
 42
1.0
  0
VERTEX
  5
5DC
100
AcDbEntity
  8
BOTTOMSOLDER
100
AcDbVertex
100
AcDb2dVertex
 10
20.745801
 20
2.54
 30
0.0
 42
1.0
  0
SEQEND
  5
5DD
100
AcDbEntity
  8
0
  0
POLYLINE
  5
5DE
100
AcDbEntity
  8
MULTILAYER
100
AcDb2dPolyline
 66
     1
 10
0.0
 20
0.0
 30
0.0
 70
     1
 40
0.749999
 41
0.749999
 75
     8
  0
VERTEX
  5
5DF
100
AcDbEntity
  8
MULTILAYER
100
AcDbVertex
100
AcDb2dVertex
 10
19.944999
 20
2.54
 30
0.0
 42
1.0
  0
VERTEX
  5
5E0
100
AcDbEntity
  8
MULTILAYER
100
AcDbVertex
100
AcDb2dVertex
 10
20.695001
 20
2.54
 30
0.0
 42
1.0
  0
SEQEND
  5
5E1
100
AcDbEntity
  8
0
  0
POLYLINE
  5
5E2
100
AcDbEntity
  8
TOPSOLDER
100
AcDb2dPolyline
 66
     1
 10
0.0
 20
0.0
 30
0.0
 70
     1
 40
0.851598
 41
0.851598
 75
     8
  0
VERTEX
  5
5E3
100
AcDbEntity
  8
TOPSOLDER
100
AcDbVertex
100
AcDb2dVertex
 10
22.434199
 20
0.0
 30
0.0
 42
1.0
  0
VERTEX
  5
5E4
100
AcDbEntity
  8
TOPSOLDER
100
AcDbVertex
100
AcDb2dVertex
 10
23.285801
 20
0.0
 30
0.0
 42
1.0
  0
SEQEND
  5
5E5
100
AcDbEntity
  8
0
  0
POLYLINE
  5
5E6
100
AcDbEntity
  8
BOTTOMSOLDER
100
AcDb2dPolyline
 66
     1
 10
0.0
 20
0.0
 30
0.0
 70
     1
 40
0.851598
 41
0.851598
 75
     8
  0
VERTEX
  5
5E7
100
AcDbEntity
  8
BOTTOMSOLDER
100
AcDbVertex
100
AcDb2dVertex
 10
22.434199
 20
0.0
 30
0.0
 42
1.0
  0
VERTEX
  5
5E8
100
AcDbEntity
  8
BOTTOMSOLDER
100
AcDbVertex
100
AcDb2dVertex
 10
23.285801
 20
0.0
 30
0.0
 42
1.0
  0
SEQEND
  5
5E9
100
AcDbEntity
  8
0
  0
POLYLINE
  5
5EA
100
AcDbEntity
  8
MULTILAYER
100
AcDb2dPolyline
 66
     1
 10
0.0
 20
0.0
 30
0.0
 70
     1
 40
0.749999
 41
0.749999
 75
     8
  0
VERTEX
  5
5EB
100
AcDbEntity
  8
MULTILAYER
100
AcDbVertex
100
AcDb2dVertex
 10
22.484999
 20
0.0
 30
0.0
 42
1.0
  0
VERTEX
  5
5EC
100
AcDbEntity
  8
MULTILAYER
100
AcDbVertex
100
AcDb2dVertex
 10
23.235001
 20
0.0
 30
0.0
 42
1.0
  0
SEQEND
  5
5ED
100
AcDbEntity
  8
0
  0
POLYLINE
  5
5EE
100
AcDbEntity
  8
TOPSOLDER
100
AcDb2dPolyline
 66
     1
 10
0.0
 20
0.0
 30
0.0
 70
     1
 40
0.851598
 41
0.851598
 75
     8
  0
VERTEX
  5
5EF
100
AcDbEntity
  8
TOPSOLDER
100
AcDbVertex
100
AcDb2dVertex
 10
22.434199
 20
2.54
 30
0.0
 42
1.0
  0
VERTEX
  5
5F0
100
AcDbEntity
  8
TOPSOLDER
100
AcDbVertex
100
AcDb2dVertex
 10
23.285801
 20
2.54
 30
0.0
 42
1.0
  0
SEQEND
  5
5F1
100
AcDbEntity
  8
0
  0
POLYLINE
  5
5F2
100
AcDbEntity
  8
BOTTOMSOLDER
100
AcDb2dPolyline
 66
     1
 10
0.0
 20
0.0
 30
0.0
 70
     1
 40
0.851598
 41
0.851598
 75
     8
  0
VERTEX
  5
5F3
100
AcDbEntity
  8
BOTTOMSOLDER
100
AcDbVertex
100
AcDb2dVertex
 10
22.434199
 20
2.54
 30
0.0
 42
1.0
  0
VERTEX
  5
5F4
100
AcDbEntity
  8
BOTTOMSOLDER
100
AcDbVertex
100
AcDb2dVertex
 10
23.285801
 20
2.54
 30
0.0
 42
1.0
  0
SEQEND
  5
5F5
100
AcDbEntity
  8
0
  0
POLYLINE
  5
5F6
100
AcDbEntity
  8
MULTILAYER
100
AcDb2dPolyline
 66
     1
 10
0.0
 20
0.0
 30
0.0
 70
     1
 40
0.749999
 41
0.749999
 75
     8
  0
VERTEX
  5
5F7
100
AcDbEntity
  8
MULTILAYER
100
AcDbVertex
100
AcDb2dVertex
 10
22.484999
 20
2.54
 30
0.0
 42
1.0
  0
VERTEX
  5
5F8
100
AcDbEntity
  8
MULTILAYER
100
AcDbVertex
100
AcDb2dVertex
 10
23.235001
 20
2.54
 30
0.0
 42
1.0
  0
SEQEND
  5
5F9
100
AcDbEntity
  8
0
  0
POLYLINE
  5
5FA
100
AcDbEntity
  8
TOPSOLDER
100
AcDb2dPolyline
 66
     1
 10
0.0
 20
0.0
 30
0.0
 70
     1
 40
0.851598
 41
0.851598
 75
     8
  0
VERTEX
  5
5FB
100
AcDbEntity
  8
TOPSOLDER
100
AcDbVertex
100
AcDb2dVertex
 10
24.974199
 20
0.0
 30
0.0
 42
1.0
  0
VERTEX
  5
5FC
100
AcDbEntity
  8
TOPSOLDER
100
AcDbVertex
100
AcDb2dVertex
 10
25.825801
 20
0.0
 30
0.0
 42
1.0
  0
SEQEND
  5
5FD
100
AcDbEntity
  8
0
  0
POLYLINE
  5
5FE
100
AcDbEntity
  8
BOTTOMSOLDER
100
AcDb2dPolyline
 66
     1
 10
0.0
 20
0.0
 30
0.0
 70
     1
 40
0.851598
 41
0.851598
 75
     8
  0
VERTEX
  5
5FF
100
AcDbEntity
  8
BOTTOMSOLDER
100
AcDbVertex
100
AcDb2dVertex
 10
24.974199
 20
0.0
 30
0.0
 42
1.0
  0
VERTEX
  5
600
100
AcDbEntity
  8
BOTTOMSOLDER
100
AcDbVertex
100
AcDb2dVertex
 10
25.825801
 20
0.0
 30
0.0
 42
1.0
  0
SEQEND
  5
601
100
AcDbEntity
  8
0
  0
POLYLINE
  5
602
100
AcDbEntity
  8
MULTILAYER
100
AcDb2dPolyline
 66
     1
 10
0.0
 20
0.0
 30
0.0
 70
     1
 40
0.749999
 41
0.749999
 75
     8
  0
VERTEX
  5
603
100
AcDbEntity
  8
MULTILAYER
100
AcDbVertex
100
AcDb2dVertex
 10
25.024999
 20
0.0
 30
0.0
 42
1.0
  0
VERTEX
  5
604
100
AcDbEntity
  8
MULTILAYER
100
AcDbVertex
100
AcDb2dVertex
 10
25.775001
 20
0.0
 30
0.0
 42
1.0
  0
SEQEND
  5
605
100
AcDbEntity
  8
0
  0
POLYLINE
  5
606
100
AcDbEntity
  8
TOPSOLDER
100
AcDb2dPolyline
 66
     1
 10
0.0
 20
0.0
 30
0.0
 70
     1
 40
0.851598
 41
0.851598
 75
     8
  0
VERTEX
  5
607
100
AcDbEntity
  8
TOPSOLDER
100
AcDbVertex
100
AcDb2dVertex
 10
24.974199
 20
2.54
 30
0.0
 42
1.0
  0
VERTEX
  5
608
100
AcDbEntity
  8
TOPSOLDER
100
AcDbVertex
100
AcDb2dVertex
 10
25.825801
 20
2.54
 30
0.0
 42
1.0
  0
SEQEND
  5
609
100
AcDbEntity
  8
0
  0
POLYLINE
  5
60A
100
AcDbEntity
  8
BOTTOMSOLDER
100
AcDb2dPolyline
 66
     1
 10
0.0
 20
0.0
 30
0.0
 70
     1
 40
0.851598
 41
0.851598
 75
     8
  0
VERTEX
  5
60B
100
AcDbEntity
  8
BOTTOMSOLDER
100
AcDbVertex
100
AcDb2dVertex
 10
24.974199
 20
2.54
 30
0.0
 42
1.0
  0
VERTEX
  5
60C
100
AcDbEntity
  8
BOTTOMSOLDER
100
AcDbVertex
100
AcDb2dVertex
 10
25.825801
 20
2.54
 30
0.0
 42
1.0
  0
SEQEND
  5
60D
100
AcDbEntity
  8
0
  0
POLYLINE
  5
60E
100
AcDbEntity
  8
MULTILAYER
100
AcDb2dPolyline
 66
     1
 10
0.0
 20
0.0
 30
0.0
 70
     1
 40
0.749999
 41
0.749999
 75
     8
  0
VERTEX
  5
60F
100
AcDbEntity
  8
MULTILAYER
100
AcDbVertex
100
AcDb2dVertex
 10
25.024999
 20
2.54
 30
0.0
 42
1.0
  0
VERTEX
  5
610
100
AcDbEntity
  8
MULTILAYER
100
AcDbVertex
100
AcDb2dVertex
 10
25.775001
 20
2.54
 30
0.0
 42
1.0
  0
SEQEND
  5
611
100
AcDbEntity
  8
0
  0
POLYLINE
  5
612
100
AcDbEntity
  8
TOPSOLDER
100
AcDb2dPolyline
 66
     1
 10
0.0
 20
0.0
 30
0.0
 70
     1
 40
0.851598
 41
0.851598
 75
     8
  0
VERTEX
  5
613
100
AcDbEntity
  8
TOPSOLDER
100
AcDbVertex
100
AcDb2dVertex
 10
27.514199
 20
0.0
 30
0.0
 42
1.0
  0
VERTEX
  5
614
100
AcDbEntity
  8
TOPSOLDER
100
AcDbVertex
100
AcDb2dVertex
 10
28.365801
 20
0.0
 30
0.0
 42
1.0
  0
SEQEND
  5
615
100
AcDbEntity
  8
0
  0
POLYLINE
  5
616
100
AcDbEntity
  8
BOTTOMSOLDER
100
AcDb2dPolyline
 66
     1
 10
0.0
 20
0.0
 30
0.0
 70
     1
 40
0.851598
 41
0.851598
 75
     8
  0
VERTEX
  5
617
100
AcDbEntity
  8
BOTTOMSOLDER
100
AcDbVertex
100
AcDb2dVertex
 10
27.514199
 20
0.0
 30
0.0
 42
1.0
  0
VERTEX
  5
618
100
AcDbEntity
  8
BOTTOMSOLDER
100
AcDbVertex
100
AcDb2dVertex
 10
28.365801
 20
0.0
 30
0.0
 42
1.0
  0
SEQEND
  5
619
100
AcDbEntity
  8
0
  0
POLYLINE
  5
61A
100
AcDbEntity
  8
MULTILAYER
100
AcDb2dPolyline
 66
     1
 10
0.0
 20
0.0
 30
0.0
 70
     1
 40
0.749999
 41
0.749999
 75
     8
  0
VERTEX
  5
61B
100
AcDbEntity
  8
MULTILAYER
100
AcDbVertex
100
AcDb2dVertex
 10
27.564999
 20
0.0
 30
0.0
 42
1.0
  0
VERTEX
  5
61C
100
AcDbEntity
  8
MULTILAYER
100
AcDbVertex
100
AcDb2dVertex
 10
28.315001
 20
0.0
 30
0.0
 42
1.0
  0
SEQEND
  5
61D
100
AcDbEntity
  8
0
  0
POLYLINE
  5
61E
100
AcDbEntity
  8
TOPSOLDER
100
AcDb2dPolyline
 66
     1
 10
0.0
 20
0.0
 30
0.0
 70
     1
 40
0.851598
 41
0.851598
 75
     8
  0
VERTEX
  5
61F
100
AcDbEntity
  8
TOPSOLDER
100
AcDbVertex
100
AcDb2dVertex
 10
27.514199
 20
2.54
 30
0.0
 42
1.0
  0
VERTEX
  5
620
100
AcDbEntity
  8
TOPSOLDER
100
AcDbVertex
100
AcDb2dVertex
 10
28.365801
 20
2.54
 30
0.0
 42
1.0
  0
SEQEND
  5
621
100
AcDbEntity
  8
0
  0
POLYLINE
  5
622
100
AcDbEntity
  8
BOTTOMSOLDER
100
AcDb2dPolyline
 66
     1
 10
0.0
 20
0.0
 30
0.0
 70
     1
 40
0.851598
 41
0.851598
 75
     8
  0
VERTEX
  5
623
100
AcDbEntity
  8
BOTTOMSOLDER
100
AcDbVertex
100
AcDb2dVertex
 10
27.514199
 20
2.54
 30
0.0
 42
1.0
  0
VERTEX
  5
624
100
AcDbEntity
  8
BOTTOMSOLDER
100
AcDbVertex
100
AcDb2dVertex
 10
28.365801
 20
2.54
 30
0.0
 42
1.0
  0
SEQEND
  5
625
100
AcDbEntity
  8
0
  0
POLYLINE
  5
626
100
AcDbEntity
  8
MULTILAYER
100
AcDb2dPolyline
 66
     1
 10
0.0
 20
0.0
 30
0.0
 70
     1
 40
0.749999
 41
0.749999
 75
     8
  0
VERTEX
  5
627
100
AcDbEntity
  8
MULTILAYER
100
AcDbVertex
100
AcDb2dVertex
 10
27.564999
 20
2.54
 30
0.0
 42
1.0
  0
VERTEX
  5
628
100
AcDbEntity
  8
MULTILAYER
100
AcDbVertex
100
AcDb2dVertex
 10
28.315001
 20
2.54
 30
0.0
 42
1.0
  0
SEQEND
  5
629
100
AcDbEntity
  8
0
  0
POLYLINE
  5
62A
100
AcDbEntity
  8
TOPSOLDER
100
AcDb2dPolyline
 66
     1
 10
0.0
 20
0.0
 30
0.0
 70
     1
 40
0.851598
 41
0.851598
 75
     8
  0
VERTEX
  5
62B
100
AcDbEntity
  8
TOPSOLDER
100
AcDbVertex
100
AcDb2dVertex
 10
30.054199
 20
0.0
 30
0.0
 42
1.0
  0
VERTEX
  5
62C
100
AcDbEntity
  8
TOPSOLDER
100
AcDbVertex
100
AcDb2dVertex
 10
30.905801
 20
0.0
 30
0.0
 42
1.0
  0
SEQEND
  5
62D
100
AcDbEntity
  8
0
  0
POLYLINE
  5
62E
100
AcDbEntity
  8
BOTTOMSOLDER
100
AcDb2dPolyline
 66
     1
 10
0.0
 20
0.0
 30
0.0
 70
     1
 40
0.851598
 41
0.851598
 75
     8
  0
VERTEX
  5
62F
100
AcDbEntity
  8
BOTTOMSOLDER
100
AcDbVertex
100
AcDb2dVertex
 10
30.054199
 20
0.0
 30
0.0
 42
1.0
  0
VERTEX
  5
630
100
AcDbEntity
  8
BOTTOMSOLDER
100
AcDbVertex
100
AcDb2dVertex
 10
30.905801
 20
0.0
 30
0.0
 42
1.0
  0
SEQEND
  5
631
100
AcDbEntity
  8
0
  0
POLYLINE
  5
632
100
AcDbEntity
  8
MULTILAYER
100
AcDb2dPolyline
 66
     1
 10
0.0
 20
0.0
 30
0.0
 70
     1
 40
0.749999
 41
0.749999
 75
     8
  0
VERTEX
  5
633
100
AcDbEntity
  8
MULTILAYER
100
AcDbVertex
100
AcDb2dVertex
 10
30.104999
 20
0.0
 30
0.0
 42
1.0
  0
VERTEX
  5
634
100
AcDbEntity
  8
MULTILAYER
100
AcDbVertex
100
AcDb2dVertex
 10
30.855001
 20
0.0
 30
0.0
 42
1.0
  0
SEQEND
  5
635
100
AcDbEntity
  8
0
  0
POLYLINE
  5
636
100
AcDbEntity
  8
TOPSOLDER
100
AcDb2dPolyline
 66
     1
 10
0.0
 20
0.0
 30
0.0
 70
     1
 40
0.851598
 41
0.851598
 75
     8
  0
VERTEX
  5
637
100
AcDbEntity
  8
TOPSOLDER
100
AcDbVertex
100
AcDb2dVertex
 10
30.054199
 20
2.54
 30
0.0
 42
1.0
  0
VERTEX
  5
638
100
AcDbEntity
  8
TOPSOLDER
100
AcDbVertex
100
AcDb2dVertex
 10
30.905801
 20
2.54
 30
0.0
 42
1.0
  0
SEQEND
  5
639
100
AcDbEntity
  8
0
  0
POLYLINE
  5
63A
100
AcDbEntity
  8
BOTTOMSOLDER
100
AcDb2dPolyline
 66
     1
 10
0.0
 20
0.0
 30
0.0
 70
     1
 40
0.851598
 41
0.851598
 75
     8
  0
VERTEX
  5
63B
100
AcDbEntity
  8
BOTTOMSOLDER
100
AcDbVertex
100
AcDb2dVertex
 10
30.054199
 20
2.54
 30
0.0
 42
1.0
  0
VERTEX
  5
63C
100
AcDbEntity
  8
BOTTOMSOLDER
100
AcDbVertex
100
AcDb2dVertex
 10
30.905801
 20
2.54
 30
0.0
 42
1.0
  0
SEQEND
  5
63D
100
AcDbEntity
  8
0
  0
POLYLINE
  5
63E
100
AcDbEntity
  8
MULTILAYER
100
AcDb2dPolyline
 66
     1
 10
0.0
 20
0.0
 30
0.0
 70
     1
 40
0.749999
 41
0.749999
 75
     8
  0
VERTEX
  5
63F
100
AcDbEntity
  8
MULTILAYER
100
AcDbVertex
100
AcDb2dVertex
 10
30.104999
 20
2.54
 30
0.0
 42
1.0
  0
VERTEX
  5
640
100
AcDbEntity
  8
MULTILAYER
100
AcDbVertex
100
AcDb2dVertex
 10
30.855001
 20
2.54
 30
0.0
 42
1.0
  0
SEQEND
  5
641
100
AcDbEntity
  8
0
  0
POLYLINE
  5
642
100
AcDbEntity
  8
TOPSOLDER
100
AcDb2dPolyline
 66
     1
 10
0.0
 20
0.0
 30
0.0
 70
     1
 40
0.851598
 41
0.851598
 75
     8
  0
VERTEX
  5
643
100
AcDbEntity
  8
TOPSOLDER
100
AcDbVertex
100
AcDb2dVertex
 10
32.594199
 20
0.0
 30
0.0
 42
1.0
  0
VERTEX
  5
644
100
AcDbEntity
  8
TOPSOLDER
100
AcDbVertex
100
AcDb2dVertex
 10
33.445801
 20
0.0
 30
0.0
 42
1.0
  0
SEQEND
  5
645
100
AcDbEntity
  8
0
  0
POLYLINE
  5
646
100
AcDbEntity
  8
BOTTOMSOLDER
100
AcDb2dPolyline
 66
     1
 10
0.0
 20
0.0
 30
0.0
 70
     1
 40
0.851598
 41
0.851598
 75
     8
  0
VERTEX
  5
647
100
AcDbEntity
  8
BOTTOMSOLDER
100
AcDbVertex
100
AcDb2dVertex
 10
32.594199
 20
0.0
 30
0.0
 42
1.0
  0
VERTEX
  5
648
100
AcDbEntity
  8
BOTTOMSOLDER
100
AcDbVertex
100
AcDb2dVertex
 10
33.445801
 20
0.0
 30
0.0
 42
1.0
  0
SEQEND
  5
649
100
AcDbEntity
  8
0
  0
POLYLINE
  5
64A
100
AcDbEntity
  8
MULTILAYER
100
AcDb2dPolyline
 66
     1
 10
0.0
 20
0.0
 30
0.0
 70
     1
 40
0.749999
 41
0.749999
 75
     8
  0
VERTEX
  5
64B
100
AcDbEntity
  8
MULTILAYER
100
AcDbVertex
100
AcDb2dVertex
 10
32.644999
 20
0.0
 30
0.0
 42
1.0
  0
VERTEX
  5
64C
100
AcDbEntity
  8
MULTILAYER
100
AcDbVertex
100
AcDb2dVertex
 10
33.395001
 20
0.0
 30
0.0
 42
1.0
  0
SEQEND
  5
64D
100
AcDbEntity
  8
0
  0
POLYLINE
  5
64E
100
AcDbEntity
  8
TOPSOLDER
100
AcDb2dPolyline
 66
     1
 10
0.0
 20
0.0
 30
0.0
 70
     1
 40
0.851598
 41
0.851598
 75
     8
  0
VERTEX
  5
64F
100
AcDbEntity
  8
TOPSOLDER
100
AcDbVertex
100
AcDb2dVertex
 10
32.594199
 20
2.54
 30
0.0
 42
1.0
  0
VERTEX
  5
650
100
AcDbEntity
  8
TOPSOLDER
100
AcDbVertex
100
AcDb2dVertex
 10
33.445801
 20
2.54
 30
0.0
 42
1.0
  0
SEQEND
  5
651
100
AcDbEntity
  8
0
  0
POLYLINE
  5
652
100
AcDbEntity
  8
BOTTOMSOLDER
100
AcDb2dPolyline
 66
     1
 10
0.0
 20
0.0
 30
0.0
 70
     1
 40
0.851598
 41
0.851598
 75
     8
  0
VERTEX
  5
653
100
AcDbEntity
  8
BOTTOMSOLDER
100
AcDbVertex
100
AcDb2dVertex
 10
32.594199
 20
2.54
 30
0.0
 42
1.0
  0
VERTEX
  5
654
100
AcDbEntity
  8
BOTTOMSOLDER
100
AcDbVertex
100
AcDb2dVertex
 10
33.445801
 20
2.54
 30
0.0
 42
1.0
  0
SEQEND
  5
655
100
AcDbEntity
  8
0
  0
POLYLINE
  5
656
100
AcDbEntity
  8
MULTILAYER
100
AcDb2dPolyline
 66
     1
 10
0.0
 20
0.0
 30
0.0
 70
     1
 40
0.749999
 41
0.749999
 75
     8
  0
VERTEX
  5
657
100
AcDbEntity
  8
MULTILAYER
100
AcDbVertex
100
AcDb2dVertex
 10
32.644999
 20
2.54
 30
0.0
 42
1.0
  0
VERTEX
  5
658
100
AcDbEntity
  8
MULTILAYER
100
AcDbVertex
100
AcDb2dVertex
 10
33.395001
 20
2.54
 30
0.0
 42
1.0
  0
SEQEND
  5
659
100
AcDbEntity
  8
0
  0
POLYLINE
  5
65A
100
AcDbEntity
  8
TOPSOLDER
100
AcDb2dPolyline
 66
     1
 10
0.0
 20
0.0
 30
0.0
 70
     1
 40
0.851598
 41
0.851598
 75
     8
  0
VERTEX
  5
65B
100
AcDbEntity
  8
TOPSOLDER
100
AcDbVertex
100
AcDb2dVertex
 10
35.134199
 20
0.0
 30
0.0
 42
1.0
  0
VERTEX
  5
65C
100
AcDbEntity
  8
TOPSOLDER
100
AcDbVertex
100
AcDb2dVertex
 10
35.985801
 20
0.0
 30
0.0
 42
1.0
  0
SEQEND
  5
65D
100
AcDbEntity
  8
0
  0
POLYLINE
  5
65E
100
AcDbEntity
  8
BOTTOMSOLDER
100
AcDb2dPolyline
 66
     1
 10
0.0
 20
0.0
 30
0.0
 70
     1
 40
0.851598
 41
0.851598
 75
     8
  0
VERTEX
  5
65F
100
AcDbEntity
  8
BOTTOMSOLDER
100
AcDbVertex
100
AcDb2dVertex
 10
35.134199
 20
0.0
 30
0.0
 42
1.0
  0
VERTEX
  5
660
100
AcDbEntity
  8
BOTTOMSOLDER
100
AcDbVertex
100
AcDb2dVertex
 10
35.985801
 20
0.0
 30
0.0
 42
1.0
  0
SEQEND
  5
661
100
AcDbEntity
  8
0
  0
POLYLINE
  5
662
100
AcDbEntity
  8
MULTILAYER
100
AcDb2dPolyline
 66
     1
 10
0.0
 20
0.0
 30
0.0
 70
     1
 40
0.749999
 41
0.749999
 75
     8
  0
VERTEX
  5
663
100
AcDbEntity
  8
MULTILAYER
100
AcDbVertex
100
AcDb2dVertex
 10
35.184999
 20
0.0
 30
0.0
 42
1.0
  0
VERTEX
  5
664
100
AcDbEntity
  8
MULTILAYER
100
AcDbVertex
100
AcDb2dVertex
 10
35.935001
 20
0.0
 30
0.0
 42
1.0
  0
SEQEND
  5
665
100
AcDbEntity
  8
0
  0
POLYLINE
  5
666
100
AcDbEntity
  8
TOPSOLDER
100
AcDb2dPolyline
 66
     1
 10
0.0
 20
0.0
 30
0.0
 70
     1
 40
0.851598
 41
0.851598
 75
     8
  0
VERTEX
  5
667
100
AcDbEntity
  8
TOPSOLDER
100
AcDbVertex
100
AcDb2dVertex
 10
35.134199
 20
2.54
 30
0.0
 42
1.0
  0
VERTEX
  5
668
100
AcDbEntity
  8
TOPSOLDER
100
AcDbVertex
100
AcDb2dVertex
 10
35.985801
 20
2.54
 30
0.0
 42
1.0
  0
SEQEND
  5
669
100
AcDbEntity
  8
0
  0
POLYLINE
  5
66A
100
AcDbEntity
  8
BOTTOMSOLDER
100
AcDb2dPolyline
 66
     1
 10
0.0
 20
0.0
 30
0.0
 70
     1
 40
0.851598
 41
0.851598
 75
     8
  0
VERTEX
  5
66B
100
AcDbEntity
  8
BOTTOMSOLDER
100
AcDbVertex
100
AcDb2dVertex
 10
35.134199
 20
2.54
 30
0.0
 42
1.0
  0
VERTEX
  5
66C
100
AcDbEntity
  8
BOTTOMSOLDER
100
AcDbVertex
100
AcDb2dVertex
 10
35.985801
 20
2.54
 30
0.0
 42
1.0
  0
SEQEND
  5
66D
100
AcDbEntity
  8
0
  0
POLYLINE
  5
66E
100
AcDbEntity
  8
MULTILAYER
100
AcDb2dPolyline
 66
     1
 10
0.0
 20
0.0
 30
0.0
 70
     1
 40
0.749999
 41
0.749999
 75
     8
  0
VERTEX
  5
66F
100
AcDbEntity
  8
MULTILAYER
100
AcDbVertex
100
AcDb2dVertex
 10
35.184999
 20
2.54
 30
0.0
 42
1.0
  0
VERTEX
  5
670
100
AcDbEntity
  8
MULTILAYER
100
AcDbVertex
100
AcDb2dVertex
 10
35.935001
 20
2.54
 30
0.0
 42
1.0
  0
SEQEND
  5
671
100
AcDbEntity
  8
0
  0
POLYLINE
  5
672
100
AcDbEntity
  8
TOPSOLDER
100
AcDb2dPolyline
 66
     1
 10
0.0
 20
0.0
 30
0.0
 70
     1
 40
0.851598
 41
0.851598
 75
     8
  0
VERTEX
  5
673
100
AcDbEntity
  8
TOPSOLDER
100
AcDbVertex
100
AcDb2dVertex
 10
37.674199
 20
0.0
 30
0.0
 42
1.0
  0
VERTEX
  5
674
100
AcDbEntity
  8
TOPSOLDER
100
AcDbVertex
100
AcDb2dVertex
 10
38.525801
 20
0.0
 30
0.0
 42
1.0
  0
SEQEND
  5
675
100
AcDbEntity
  8
0
  0
POLYLINE
  5
676
100
AcDbEntity
  8
BOTTOMSOLDER
100
AcDb2dPolyline
 66
     1
 10
0.0
 20
0.0
 30
0.0
 70
     1
 40
0.851598
 41
0.851598
 75
     8
  0
VERTEX
  5
677
100
AcDbEntity
  8
BOTTOMSOLDER
100
AcDbVertex
100
AcDb2dVertex
 10
37.674199
 20
0.0
 30
0.0
 42
1.0
  0
VERTEX
  5
678
100
AcDbEntity
  8
BOTTOMSOLDER
100
AcDbVertex
100
AcDb2dVertex
 10
38.525801
 20
0.0
 30
0.0
 42
1.0
  0
SEQEND
  5
679
100
AcDbEntity
  8
0
  0
POLYLINE
  5
67A
100
AcDbEntity
  8
MULTILAYER
100
AcDb2dPolyline
 66
     1
 10
0.0
 20
0.0
 30
0.0
 70
     1
 40
0.749999
 41
0.749999
 75
     8
  0
VERTEX
  5
67B
100
AcDbEntity
  8
MULTILAYER
100
AcDbVertex
100
AcDb2dVertex
 10
37.724999
 20
0.0
 30
0.0
 42
1.0
  0
VERTEX
  5
67C
100
AcDbEntity
  8
MULTILAYER
100
AcDbVertex
100
AcDb2dVertex
 10
38.475001
 20
0.0
 30
0.0
 42
1.0
  0
SEQEND
  5
67D
100
AcDbEntity
  8
0
  0
POLYLINE
  5
67E
100
AcDbEntity
  8
TOPSOLDER
100
AcDb2dPolyline
 66
     1
 10
0.0
 20
0.0
 30
0.0
 70
     1
 40
0.851598
 41
0.851598
 75
     8
  0
VERTEX
  5
67F
100
AcDbEntity
  8
TOPSOLDER
100
AcDbVertex
100
AcDb2dVertex
 10
37.674199
 20
2.54
 30
0.0
 42
1.0
  0
VERTEX
  5
680
100
AcDbEntity
  8
TOPSOLDER
100
AcDbVertex
100
AcDb2dVertex
 10
38.525801
 20
2.54
 30
0.0
 42
1.0
  0
SEQEND
  5
681
100
AcDbEntity
  8
0
  0
POLYLINE
  5
682
100
AcDbEntity
  8
BOTTOMSOLDER
100
AcDb2dPolyline
 66
     1
 10
0.0
 20
0.0
 30
0.0
 70
     1
 40
0.851598
 41
0.851598
 75
     8
  0
VERTEX
  5
683
100
AcDbEntity
  8
BOTTOMSOLDER
100
AcDbVertex
100
AcDb2dVertex
 10
37.674199
 20
2.54
 30
0.0
 42
1.0
  0
VERTEX
  5
684
100
AcDbEntity
  8
BOTTOMSOLDER
100
AcDbVertex
100
AcDb2dVertex
 10
38.525801
 20
2.54
 30
0.0
 42
1.0
  0
SEQEND
  5
685
100
AcDbEntity
  8
0
  0
POLYLINE
  5
686
100
AcDbEntity
  8
MULTILAYER
100
AcDb2dPolyline
 66
     1
 10
0.0
 20
0.0
 30
0.0
 70
     1
 40
0.749999
 41
0.749999
 75
     8
  0
VERTEX
  5
687
100
AcDbEntity
  8
MULTILAYER
100
AcDbVertex
100
AcDb2dVertex
 10
37.724999
 20
2.54
 30
0.0
 42
1.0
  0
VERTEX
  5
688
100
AcDbEntity
  8
MULTILAYER
100
AcDbVertex
100
AcDb2dVertex
 10
38.475001
 20
2.54
 30
0.0
 42
1.0
  0
SEQEND
  5
689
100
AcDbEntity
  8
0
  0
POLYLINE
  5
68A
100
AcDbEntity
  8
TOPSOLDER
100
AcDb2dPolyline
 66
     1
 10
0.0
 20
0.0
 30
0.0
 70
     1
 40
0.851598
 41
0.851598
 75
     8
  0
VERTEX
  5
68B
100
AcDbEntity
  8
TOPSOLDER
100
AcDbVertex
100
AcDb2dVertex
 10
40.214199
 20
0.0
 30
0.0
 42
1.0
  0
VERTEX
  5
68C
100
AcDbEntity
  8
TOPSOLDER
100
AcDbVertex
100
AcDb2dVertex
 10
41.065801
 20
0.0
 30
0.0
 42
1.0
  0
SEQEND
  5
68D
100
AcDbEntity
  8
0
  0
POLYLINE
  5
68E
100
AcDbEntity
  8
BOTTOMSOLDER
100
AcDb2dPolyline
 66
     1
 10
0.0
 20
0.0
 30
0.0
 70
     1
 40
0.851598
 41
0.851598
 75
     8
  0
VERTEX
  5
68F
100
AcDbEntity
  8
BOTTOMSOLDER
100
AcDbVertex
100
AcDb2dVertex
 10
40.214199
 20
0.0
 30
0.0
 42
1.0
  0
VERTEX
  5
690
100
AcDbEntity
  8
BOTTOMSOLDER
100
AcDbVertex
100
AcDb2dVertex
 10
41.065801
 20
0.0
 30
0.0
 42
1.0
  0
SEQEND
  5
691
100
AcDbEntity
  8
0
  0
POLYLINE
  5
692
100
AcDbEntity
  8
MULTILAYER
100
AcDb2dPolyline
 66
     1
 10
0.0
 20
0.0
 30
0.0
 70
     1
 40
0.749999
 41
0.749999
 75
     8
  0
VERTEX
  5
693
100
AcDbEntity
  8
MULTILAYER
100
AcDbVertex
100
AcDb2dVertex
 10
40.264999
 20
0.0
 30
0.0
 42
1.0
  0
VERTEX
  5
694
100
AcDbEntity
  8
MULTILAYER
100
AcDbVertex
100
AcDb2dVertex
 10
41.015001
 20
0.0
 30
0.0
 42
1.0
  0
SEQEND
  5
695
100
AcDbEntity
  8
0
  0
POLYLINE
  5
696
100
AcDbEntity
  8
TOPSOLDER
100
AcDb2dPolyline
 66
     1
 10
0.0
 20
0.0
 30
0.0
 70
     1
 40
0.851598
 41
0.851598
 75
     8
  0
VERTEX
  5
697
100
AcDbEntity
  8
TOPSOLDER
100
AcDbVertex
100
AcDb2dVertex
 10
40.214199
 20
2.54
 30
0.0
 42
1.0
  0
VERTEX
  5
698
100
AcDbEntity
  8
TOPSOLDER
100
AcDbVertex
100
AcDb2dVertex
 10
41.065801
 20
2.54
 30
0.0
 42
1.0
  0
SEQEND
  5
699
100
AcDbEntity
  8
0
  0
POLYLINE
  5
69A
100
AcDbEntity
  8
BOTTOMSOLDER
100
AcDb2dPolyline
 66
     1
 10
0.0
 20
0.0
 30
0.0
 70
     1
 40
0.851598
 41
0.851598
 75
     8
  0
VERTEX
  5
69B
100
AcDbEntity
  8
BOTTOMSOLDER
100
AcDbVertex
100
AcDb2dVertex
 10
40.214199
 20
2.54
 30
0.0
 42
1.0
  0
VERTEX
  5
69C
100
AcDbEntity
  8
BOTTOMSOLDER
100
AcDbVertex
100
AcDb2dVertex
 10
41.065801
 20
2.54
 30
0.0
 42
1.0
  0
SEQEND
  5
69D
100
AcDbEntity
  8
0
  0
POLYLINE
  5
69E
100
AcDbEntity
  8
MULTILAYER
100
AcDb2dPolyline
 66
     1
 10
0.0
 20
0.0
 30
0.0
 70
     1
 40
0.749999
 41
0.749999
 75
     8
  0
VERTEX
  5
69F
100
AcDbEntity
  8
MULTILAYER
100
AcDbVertex
100
AcDb2dVertex
 10
40.264999
 20
2.54
 30
0.0
 42
1.0
  0
VERTEX
  5
6A0
100
AcDbEntity
  8
MULTILAYER
100
AcDbVertex
100
AcDb2dVertex
 10
41.015001
 20
2.54
 30
0.0
 42
1.0
  0
SEQEND
  5
6A1
100
AcDbEntity
  8
0
  0
ENDBLK
  5
6A2
100
AcDbEntity
  8
0
100
AcDbBlockEnd
  0
ENDSEC
  0
SECTION
  2
ENTITIES
  0
POLYLINE
  5
26
100
AcDbEntity
  8
KEEPOUTLAYER
100
AcDb2dPolyline
 66
     1
 10
0.0
 20
0.0
 30
0.0
 40
0.254
 41
0.254
 75
     8
  0
VERTEX
  5
27
100
AcDbEntity
  8
KEEPOUTLAYER
100
AcDbVertex
100
AcDb2dVertex
 10
126.568802
 20
172.159397
 30
0.0
  0
VERTEX
  5
28
100
AcDbEntity
  8
KEEPOUTLAYER
100
AcDbVertex
100
AcDb2dVertex
 10
126.568802
 20
232.160999
 30
0.0
  0
SEQEND
  5
29
100
AcDbEntity
  8
0
  0
POLYLINE
  5
2A
100
AcDbEntity
  8
KEEPOUTLAYER
100
AcDb2dPolyline
 66
     1
 10
0.0
 20
0.0
 30
0.0
 70
     1
 40
0.127
 41
0.127
 75
     8
  0
VERTEX
  5
2B
100
AcDbEntity
  8
KEEPOUTLAYER
100
AcDbVertex
100
AcDb2dVertex
 10
126.505302
 20
172.159397
 30
0.0
 42
1.0
  0
VERTEX
  5
2C
100
AcDbEntity
  8
KEEPOUTLAYER
100
AcDbVertex
100
AcDb2dVertex
 10
126.632302
 20
172.159397
 30
0.0
 42
1.0
  0
SEQEND
  5
2D
100
AcDbEntity
  8
0
  0
POLYLINE
  5
2E
100
AcDbEntity
  8
KEEPOUTLAYER
100
AcDb2dPolyline
 66
     1
 10
0.0
 20
0.0
 30
0.0
 70
     1
 40
0.127
 41
0.127
 75
     8
  0
VERTEX
  5
2F
100
AcDbEntity
  8
KEEPOUTLAYER
100
AcDbVertex
100
AcDb2dVertex
 10
126.505302
 20
232.160999
 30
0.0
 42
1.0
  0
VERTEX
  5
30
100
AcDbEntity
  8
KEEPOUTLAYER
100
AcDbVertex
100
AcDb2dVertex
 10
126.632302
 20
232.160999
 30
0.0
 42
1.0
  0
SEQEND
  5
31
100
AcDbEntity
  8
0
  0
POLYLINE
  5
32
100
AcDbEntity
  8
KEEPOUTLAYER
100
AcDb2dPolyline
 66
     1
 10
0.0
 20
0.0
 30
0.0
 40
0.254
 41
0.254
 75
     8
  0
VERTEX
  5
33
100
AcDbEntity
  8
KEEPOUTLAYER
100
AcDbVertex
100
AcDb2dVertex
 10
129.037598
 20
222.445199
 30
0.0
  0
VERTEX
  5
34
100
AcDbEntity
  8
KEEPOUTLAYER
100
AcDbVertex
100
AcDb2dVertex
 10
129.503
 20
222.445199
 30
0.0
  0
SEQEND
  5
35
100
AcDbEntity
  8
0
  0
POLYLINE
  5
36
100
AcDbEntity
  8
KEEPOUTLAYER
100
AcDb2dPolyline
 66
     1
 10
0.0
 20
0.0
 30
0.0
 70
     1
 40
0.127
 41
0.127
 75
     8
  0
VERTEX
  5
37
100
AcDbEntity
  8
KEEPOUTLAYER
100
AcDbVertex
100
AcDb2dVertex
 10
128.974098
 20
222.445199
 30
0.0
 42
1.0
  0
VERTEX
  5
38
100
AcDbEntity
  8
KEEPOUTLAYER
100
AcDbVertex
100
AcDb2dVertex
 10
129.101098
 20
222.445199
 30
0.0
 42
1.0
  0
SEQEND
  5
39
100
AcDbEntity
  8
0
  0
POLYLINE
  5
3A
100
AcDbEntity
  8
KEEPOUTLAYER
100
AcDb2dPolyline
 66
     1
 10
0.0
 20
0.0
 30
0.0
 70
     1
 40
0.127
 41
0.127
 75
     8
  0
VERTEX
  5
3B
100
AcDbEntity
  8
KEEPOUTLAYER
100
AcDbVertex
100
AcDb2dVertex
 10
129.4395
 20
222.445199
 30
0.0
 42
1.0
  0
VERTEX
  5
3C
100
AcDbEntity
  8
KEEPOUTLAYER
100
AcDbVertex
100
AcDb2dVertex
 10
129.5665
 20
222.445199
 30
0.0
 42
1.0
  0
SEQEND
  5
3D
100
AcDbEntity
  8
0
  0
POLYLINE
  5
3E
100
AcDbEntity
  8
KEEPOUTLAYER
100
AcDb2dPolyline
 66
     1
 10
0.0
 20
0.0
 30
0.0
 40
0.254
 41
0.254
 75
     8
  0
VERTEX
  5
3F
100
AcDbEntity
  8
KEEPOUTLAYER
100
AcDbVertex
100
AcDb2dVertex
 10
129.0334
 20
222.441
 30
0.0
  0
VERTEX
  5
40
100
AcDbEntity
  8
KEEPOUTLAYER
100
AcDbVertex
100
AcDb2dVertex
 10
129.037598
 20
222.445199
 30
0.0
  0
SEQEND
  5
41
100
AcDbEntity
  8
0
  0
POLYLINE
  5
42
100
AcDbEntity
  8
KEEPOUTLAYER
100
AcDb2dPolyline
 66
     1
 10
0.0
 20
0.0
 30
0.0
 70
     1
 40
0.127
 41
0.127
 75
     8
  0
VERTEX
  5
43
100
AcDbEntity
  8
KEEPOUTLAYER
100
AcDbVertex
100
AcDb2dVertex
 10
128.9699
 20
222.441
 30
0.0
 42
1.0
  0
VERTEX
  5
44
100
AcDbEntity
  8
KEEPOUTLAYER
100
AcDbVertex
100
AcDb2dVertex
 10
129.0969
 20
222.441
 30
0.0
 42
1.0
  0
SEQEND
  5
45
100
AcDbEntity
  8
0
  0
POLYLINE
  5
46
100
AcDbEntity
  8
KEEPOUTLAYER
100
AcDb2dPolyline
 66
     1
 10
0.0
 20
0.0
 30
0.0
 70
     1
 40
0.127
 41
0.127
 75
     8
  0
VERTEX
  5
47
100
AcDbEntity
  8
KEEPOUTLAYER
100
AcDbVertex
100
AcDb2dVertex
 10
128.974098
 20
222.445199
 30
0.0
 42
1.0
  0
VERTEX
  5
48
100
AcDbEntity
  8
KEEPOUTLAYER
100
AcDbVertex
100
AcDb2dVertex
 10
129.101098
 20
222.445199
 30
0.0
 42
1.0
  0
SEQEND
  5
49
100
AcDbEntity
  8
0
  0
POLYLINE
  5
4A
100
AcDbEntity
  8
KEEPOUTLAYER
100
AcDb2dPolyline
 66
     1
 10
0.0
 20
0.0
 30
0.0
 40
0.254
 41
0.254
 75
     8
  0
VERTEX
  5
4B
100
AcDbEntity
  8
KEEPOUTLAYER
100
AcDbVertex
100
AcDb2dVertex
 10
131.577601
 20
222.445199
 30
0.0
  0
VERTEX
  5
4C
100
AcDbEntity
  8
KEEPOUTLAYER
100
AcDbVertex
100
AcDb2dVertex
 10
131.578802
 20
222.443998
 30
0.0
  0
SEQEND
  5
4D
100
AcDbEntity
  8
0
  0
POLYLINE
  5
4E
100
AcDbEntity
  8
KEEPOUTLAYER
100
AcDb2dPolyline
 66
     1
 10
0.0
 20
0.0
 30
0.0
 70
     1
 40
0.127
 41
0.127
 75
     8
  0
VERTEX
  5
4F
100
AcDbEntity
  8
KEEPOUTLAYER
100
AcDbVertex
100
AcDb2dVertex
 10
131.514101
 20
222.445199
 30
0.0
 42
1.0
  0
VERTEX
  5
50
100
AcDbEntity
  8
KEEPOUTLAYER
100
AcDbVertex
100
AcDb2dVertex
 10
131.641101
 20
222.445199
 30
0.0
 42
1.0
  0
SEQEND
  5
51
100
AcDbEntity
  8
0
  0
POLYLINE
  5
52
100
AcDbEntity
  8
KEEPOUTLAYER
100
AcDb2dPolyline
 66
     1
 10
0.0
 20
0.0
 30
0.0
 70
     1
 40
0.127
 41
0.127
 75
     8
  0
VERTEX
  5
53
100
AcDbEntity
  8
KEEPOUTLAYER
100
AcDbVertex
100
AcDb2dVertex
 10
131.515302
 20
222.443998
 30
0.0
 42
1.0
  0
VERTEX
  5
54
100
AcDbEntity
  8
KEEPOUTLAYER
100
AcDbVertex
100
AcDb2dVertex
 10
131.642302
 20
222.443998
 30
0.0
 42
1.0
  0
SEQEND
  5
55
100
AcDbEntity
  8
0
  0
POLYLINE
  5
56
100
AcDbEntity
  8
KEEPOUTLAYER
100
AcDb2dPolyline
 66
     1
 10
0.0
 20
0.0
 30
0.0
 40
0.254
 41
0.254
 75
     8
  0
VERTEX
  5
57
100
AcDbEntity
  8
KEEPOUTLAYER
100
AcDbVertex
100
AcDb2dVertex
 10
127.568803
 20
233.160999
 30
0.0
  0
VERTEX
  5
58
100
AcDbEntity
  8
KEEPOUTLAYER
100
AcDbVertex
100
AcDb2dVertex
 10
220.532998
 20
233.160999
 30
0.0
  0
SEQEND
  5
59
100
AcDbEntity
  8
0
  0
POLYLINE
  5
5A
100
AcDbEntity
  8
KEEPOUTLAYER
100
AcDb2dPolyline
 66
     1
 10
0.0
 20
0.0
 30
0.0
 70
     1
 40
0.127
 41
0.127
 75
     8
  0
VERTEX
  5
5B
100
AcDbEntity
  8
KEEPOUTLAYER
100
AcDbVertex
100
AcDb2dVertex
 10
127.505303
 20
233.160999
 30
0.0
 42
1.0
  0
VERTEX
  5
5C
100
AcDbEntity
  8
KEEPOUTLAYER
100
AcDbVertex
100
AcDb2dVertex
 10
127.632303
 20
233.160999
 30
0.0
 42
1.0
  0
SEQEND
  5
5D
100
AcDbEntity
  8
0
  0
POLYLINE
  5
5E
100
AcDbEntity
  8
KEEPOUTLAYER
100
AcDb2dPolyline
 66
     1
 10
0.0
 20
0.0
 30
0.0
 70
     1
 40
0.127
 41
0.127
 75
     8
  0
VERTEX
  5
5F
100
AcDbEntity
  8
KEEPOUTLAYER
100
AcDbVertex
100
AcDb2dVertex
 10
220.469498
 20
233.160999
 30
0.0
 42
1.0
  0
VERTEX
  5
60
100
AcDbEntity
  8
KEEPOUTLAYER
100
AcDbVertex
100
AcDb2dVertex
 10
220.596498
 20
233.160999
 30
0.0
 42
1.0
  0
SEQEND
  5
61
100
AcDbEntity
  8
0
  0
POLYLINE
  5
62
100
AcDbEntity
  8
KEEPOUTLAYER
100
AcDb2dPolyline
 66
     1
 10
0.0
 20
0.0
 30
0.0
 40
0.254
 41
0.254
 75
     8
  0
VERTEX
  5
63
100
AcDbEntity
  8
KEEPOUTLAYER
100
AcDbVertex
100
AcDb2dVertex
 10
127.568803
 20
171.159396
 30
0.0
  0
VERTEX
  5
64
100
AcDbEntity
  8
KEEPOUTLAYER
100
AcDbVertex
100
AcDb2dVertex
 10
220.538799
 20
171.159396
 30
0.0
  0
SEQEND
  5
65
100
AcDbEntity
  8
0
  0
POLYLINE
  5
66
100
AcDbEntity
  8
KEEPOUTLAYER
100
AcDb2dPolyline
 66
     1
 10
0.0
 20
0.0
 30
0.0
 70
     1
 40
0.127
 41
0.127
 75
     8
  0
VERTEX
  5
67
100
AcDbEntity
  8
KEEPOUTLAYER
100
AcDbVertex
100
AcDb2dVertex
 10
127.505303
 20
171.159396
 30
0.0
 42
1.0
  0
VERTEX
  5
68
100
AcDbEntity
  8
KEEPOUTLAYER
100
AcDbVertex
100
AcDb2dVertex
 10
127.632303
 20
171.159396
 30
0.0
 42
1.0
  0
SEQEND
  5
69
100
AcDbEntity
  8
0
  0
POLYLINE
  5
6A
100
AcDbEntity
  8
KEEPOUTLAYER
100
AcDb2dPolyline
 66
     1
 10
0.0
 20
0.0
 30
0.0
 70
     1
 40
0.127
 41
0.127
 75
     8
  0
VERTEX
  5
6B
100
AcDbEntity
  8
KEEPOUTLAYER
100
AcDbVertex
100
AcDb2dVertex
 10
220.475299
 20
171.159396
 30
0.0
 42
1.0
  0
VERTEX
  5
6C
100
AcDbEntity
  8
KEEPOUTLAYER
100
AcDbVertex
100
AcDb2dVertex
 10
220.602299
 20
171.159396
 30
0.0
 42
1.0
  0
SEQEND
  5
6D
100
AcDbEntity
  8
0
  0
POLYLINE
  5
6E
100
AcDbEntity
  8
KEEPOUTLAYER
100
AcDb2dPolyline
 66
     1
 10
0.0
 20
0.0
 30
0.0
 40
0.254
 41
0.254
 75
     8
  0
VERTEX
  5
6F
100
AcDbEntity
  8
KEEPOUTLAYER
100
AcDbVertex
100
AcDb2dVertex
 10
221.5388
 20
172.159397
 30
0.0
  0
VERTEX
  5
70
100
AcDbEntity
  8
KEEPOUTLAYER
100
AcDbVertex
100
AcDb2dVertex
 10
221.5388
 20
232.155197
 30
0.0
  0
SEQEND
  5
71
100
AcDbEntity
  8
0
  0
POLYLINE
  5
72
100
AcDbEntity
  8
KEEPOUTLAYER
100
AcDb2dPolyline
 66
     1
 10
0.0
 20
0.0
 30
0.0
 70
     1
 40
0.127
 41
0.127
 75
     8
  0
VERTEX
  5
73
100
AcDbEntity
  8
KEEPOUTLAYER
100
AcDbVertex
100
AcDb2dVertex
 10
221.4753
 20
172.159397
 30
0.0
 42
1.0
  0
VERTEX
  5
74
100
AcDbEntity
  8
KEEPOUTLAYER
100
AcDbVertex
100
AcDb2dVertex
 10
221.6023
 20
172.159397
 30
0.0
 42
1.0
  0
SEQEND
  5
75
100
AcDbEntity
  8
0
  0
POLYLINE
  5
76
100
AcDbEntity
  8
KEEPOUTLAYER
100
AcDb2dPolyline
 66
     1
 10
0.0
 20
0.0
 30
0.0
 70
     1
 40
0.127
 41
0.127
 75
     8
  0
VERTEX
  5
77
100
AcDbEntity
  8
KEEPOUTLAYER
100
AcDbVertex
100
AcDb2dVertex
 10
221.4753
 20
232.155197
 30
0.0
 42
1.0
  0
VERTEX
  5
78
100
AcDbEntity
  8
KEEPOUTLAYER
100
AcDbVertex
100
AcDb2dVertex
 10
221.6023
 20
232.155197
 30
0.0
 42
1.0
  0
SEQEND
  5
79
100
AcDbEntity
  8
0
  0
POLYLINE
  5
7A
100
AcDbEntity
  8
KEEPOUTLAYER
100
AcDb2dPolyline
 66
     1
 10
0.0
 20
0.0
 30
0.0
 70
     1
 40
0.254
 41
0.254
 75
     8
  0
VERTEX
  5
7B
100
AcDbEntity
  8
KEEPOUTLAYER
100
AcDbVertex
100
AcDb2dVertex
 10
133.542999
 20
175.155197
 30
0.0
 42
1.0
  0
VERTEX
  5
7C
100
AcDbEntity
  8
KEEPOUTLAYER
100
AcDbVertex
100
AcDb2dVertex
 10
127.543001
 20
175.155197
 30
0.0
 42
1.0
  0
SEQEND
  5
7D
100
AcDbEntity
  8
0
  0
POLYLINE
  5
7E
100
AcDbEntity
  8
KEEPOUTLAYER
100
AcDb2dPolyline
 66
     1
 10
0.0
 20
0.0
 30
0.0
 70
     1
 40
0.127
 41
0.127
 75
     8
  0
VERTEX
  5
7F
100
AcDbEntity
  8
KEEPOUTLAYER
100
AcDbVertex
100
AcDb2dVertex
 10
133.479499
 20
175.155197
 30
0.0
 42
1.0
  0
VERTEX
  5
80
100
AcDbEntity
  8
KEEPOUTLAYER
100
AcDbVertex
100
AcDb2dVertex
 10
133.606499
 20
175.155197
 30
0.0
 42
1.0
  0
SEQEND
  5
81
100
AcDbEntity
  8
0
  0
POLYLINE
  5
82
100
AcDbEntity
  8
KEEPOUTLAYER
100
AcDb2dPolyline
 66
     1
 10
0.0
 20
0.0
 30
0.0
 70
     1
 40
0.127
 41
0.127
 75
     8
  0
VERTEX
  5
83
100
AcDbEntity
  8
KEEPOUTLAYER
100
AcDbVertex
100
AcDb2dVertex
 10
127.479501
 20
175.155197
 30
0.0
 42
1.0
  0
VERTEX
  5
84
100
AcDbEntity
  8
KEEPOUTLAYER
100
AcDbVertex
100
AcDb2dVertex
 10
127.606501
 20
175.155197
 30
0.0
 42
1.0
  0
SEQEND
  5
85
100
AcDbEntity
  8
0
  0
POLYLINE
  5
86
100
AcDbEntity
  8
KEEPOUTLAYER
100
AcDb2dPolyline
 66
     1
 10
0.0
 20
0.0
 30
0.0
 70
     1
 40
0.254
 41
0.254
 75
     8
  0
VERTEX
  5
87
100
AcDbEntity
  8
KEEPOUTLAYER
100
AcDbVertex
100
AcDb2dVertex
 10
132.043
 20
175.155197
 30
0.0
 42
1.0
  0
VERTEX
  5
88
100
AcDbEntity
  8
KEEPOUTLAYER
100
AcDbVertex
100
AcDb2dVertex
 10
129.043001
 20
175.155197
 30
0.0
 42
1.0
  0
SEQEND
  5
89
100
AcDbEntity
  8
0
  0
POLYLINE
  5
8A
100
AcDbEntity
  8
KEEPOUTLAYER
100
AcDb2dPolyline
 66
     1
 10
0.0
 20
0.0
 30
0.0
 70
     1
 40
0.127
 41
0.127
 75
     8
  0
VERTEX
  5
8B
100
AcDbEntity
  8
KEEPOUTLAYER
100
AcDbVertex
100
AcDb2dVertex
 10
131.9795
 20
175.155197
 30
0.0
 42
1.0
  0
VERTEX
  5
8C
100
AcDbEntity
  8
KEEPOUTLAYER
100
AcDbVertex
100
AcDb2dVertex
 10
132.1065
 20
175.155197
 30
0.0
 42
1.0
  0
SEQEND
  5
8D
100
AcDbEntity
  8
0
  0
POLYLINE
  5
8E
100
AcDbEntity
  8
KEEPOUTLAYER
100
AcDb2dPolyline
 66
     1
 10
0.0
 20
0.0
 30
0.0
 70
     1
 40
0.127
 41
0.127
 75
     8
  0
VERTEX
  5
8F
100
AcDbEntity
  8
KEEPOUTLAYER
100
AcDbVertex
100
AcDb2dVertex
 10
128.979501
 20
175.155197
 30
0.0
 42
1.0
  0
VERTEX
  5
90
100
AcDbEntity
  8
KEEPOUTLAYER
100
AcDbVertex
100
AcDb2dVertex
 10
129.106501
 20
175.155197
 30
0.0
 42
1.0
  0
SEQEND
  5
91
100
AcDbEntity
  8
0
  0
POLYLINE
  5
92
100
AcDbEntity
  8
KEEPOUTLAYER
100
AcDb2dPolyline
 66
     1
 10
0.0
 20
0.0
 30
0.0
 70
     1
 40
0.254
 41
0.254
 75
     8
  0
VERTEX
  5
93
100
AcDbEntity
  8
KEEPOUTLAYER
100
AcDbVertex
100
AcDb2dVertex
 10
133.568801
 20
229.165198
 30
0.0
 42
1.0
  0
VERTEX
  5
94
100
AcDbEntity
  8
KEEPOUTLAYER
100
AcDbVertex
100
AcDb2dVertex
 10
127.568803
 20
229.165198
 30
0.0
 42
1.0
  0
SEQEND
  5
95
100
AcDbEntity
  8
0
  0
POLYLINE
  5
96
100
AcDbEntity
  8
KEEPOUTLAYER
100
AcDb2dPolyline
 66
     1
 10
0.0
 20
0.0
 30
0.0
 70
     1
 40
0.127
 41
0.127
 75
     8
  0
VERTEX
  5
97
100
AcDbEntity
  8
KEEPOUTLAYER
100
AcDbVertex
100
AcDb2dVertex
 10
133.505301
 20
229.165198
 30
0.0
 42
1.0
  0
VERTEX
  5
98
100
AcDbEntity
  8
KEEPOUTLAYER
100
AcDbVertex
100
AcDb2dVertex
 10
133.632301
 20
229.165198
 30
0.0
 42
1.0
  0
SEQEND
  5
99
100
AcDbEntity
  8
0
  0
POLYLINE
  5
9A
100
AcDbEntity
  8
KEEPOUTLAYER
100
AcDb2dPolyline
 66
     1
 10
0.0
 20
0.0
 30
0.0
 70
     1
 40
0.127
 41
0.127
 75
     8
  0
VERTEX
  5
9B
100
AcDbEntity
  8
KEEPOUTLAYER
100
AcDbVertex
100
AcDb2dVertex
 10
127.505303
 20
229.165198
 30
0.0
 42
1.0
  0
VERTEX
  5
9C
100
AcDbEntity
  8
KEEPOUTLAYER
100
AcDbVertex
100
AcDb2dVertex
 10
127.632303
 20
229.165198
 30
0.0
 42
1.0
  0
SEQEND
  5
9D
100
AcDbEntity
  8
0
  0
POLYLINE
  5
9E
100
AcDbEntity
  8
KEEPOUTLAYER
100
AcDb2dPolyline
 66
     1
 10
0.0
 20
0.0
 30
0.0
 70
     1
 40
0.254
 41
0.254
 75
     8
  0
VERTEX
  5
9F
100
AcDbEntity
  8
KEEPOUTLAYER
100
AcDbVertex
100
AcDb2dVertex
 10
132.068801
 20
229.165198
 30
0.0
 42
1.0
  0
VERTEX
  5
A0
100
AcDbEntity
  8
KEEPOUTLAYER
100
AcDbVertex
100
AcDb2dVertex
 10
129.068802
 20
229.165198
 30
0.0
 42
1.0
  0
SEQEND
  5
A1
100
AcDbEntity
  8
0
  0
POLYLINE
  5
A2
100
AcDbEntity
  8
KEEPOUTLAYER
100
AcDb2dPolyline
 66
     1
 10
0.0
 20
0.0
 30
0.0
 70
     1
 40
0.127
 41
0.127
 75
     8
  0
VERTEX
  5
A3
100
AcDbEntity
  8
KEEPOUTLAYER
100
AcDbVertex
100
AcDb2dVertex
 10
132.005301
 20
229.165198
 30
0.0
 42
1.0
  0
VERTEX
  5
A4
100
AcDbEntity
  8
KEEPOUTLAYER
100
AcDbVertex
100
AcDb2dVertex
 10
132.132301
 20
229.165198
 30
0.0
 42
1.0
  0
SEQEND
  5
A5
100
AcDbEntity
  8
0
  0
POLYLINE
  5
A6
100
AcDbEntity
  8
KEEPOUTLAYER
100
AcDb2dPolyline
 66
     1
 10
0.0
 20
0.0
 30
0.0
 70
     1
 40
0.127
 41
0.127
 75
     8
  0
VERTEX
  5
A7
100
AcDbEntity
  8
KEEPOUTLAYER
100
AcDbVertex
100
AcDb2dVertex
 10
129.005302
 20
229.165198
 30
0.0
 42
1.0
  0
VERTEX
  5
A8
100
AcDbEntity
  8
KEEPOUTLAYER
100
AcDbVertex
100
AcDb2dVertex
 10
129.132302
 20
229.165198
 30
0.0
 42
1.0
  0
SEQEND
  5
A9
100
AcDbEntity
  8
0
  0
POLYLINE
  5
AA
100
AcDbEntity
  8
KEEPOUTLAYER
100
AcDb2dPolyline
 66
     1
 10
0.0
 20
0.0
 30
0.0
 70
     1
 40
0.254
 41
0.254
 75
     8
  0
VERTEX
  5
AB
100
AcDbEntity
  8
KEEPOUTLAYER
100
AcDbVertex
100
AcDb2dVertex
 10
220.538799
 20
229.155198
 30
0.0
 42
1.0
  0
VERTEX
  5
AC
100
AcDbEntity
  8
KEEPOUTLAYER
100
AcDbVertex
100
AcDb2dVertex
 10
214.538801
 20
229.155198
 30
0.0
 42
1.0
  0
SEQEND
  5
AD
100
AcDbEntity
  8
0
  0
POLYLINE
  5
AE
100
AcDbEntity
  8
KEEPOUTLAYER
100
AcDb2dPolyline
 66
     1
 10
0.0
 20
0.0
 30
0.0
 70
     1
 40
0.127
 41
0.127
 75
     8
  0
VERTEX
  5
AF
100
AcDbEntity
  8
KEEPOUTLAYER
100
AcDbVertex
100
AcDb2dVertex
 10
220.475299
 20
229.155198
 30
0.0
 42
1.0
  0
VERTEX
  5
B0
100
AcDbEntity
  8
KEEPOUTLAYER
100
AcDbVertex
100
AcDb2dVertex
 10
220.602299
 20
229.155198
 30
0.0
 42
1.0
  0
SEQEND
  5
B1
100
AcDbEntity
  8
0
  0
POLYLINE
  5
B2
100
AcDbEntity
  8
KEEPOUTLAYER
100
AcDb2dPolyline
 66
     1
 10
0.0
 20
0.0
 30
0.0
 70
     1
 40
0.127
 41
0.127
 75
     8
  0
VERTEX
  5
B3
100
AcDbEntity
  8
KEEPOUTLAYER
100
AcDbVertex
100
AcDb2dVertex
 10
214.475301
 20
229.155198
 30
0.0
 42
1.0
  0
VERTEX
  5
B4
100
AcDbEntity
  8
KEEPOUTLAYER
100
AcDbVertex
100
AcDb2dVertex
 10
214.602301
 20
229.155198
 30
0.0
 42
1.0
  0
SEQEND
  5
B5
100
AcDbEntity
  8
0
  0
POLYLINE
  5
B6
100
AcDbEntity
  8
KEEPOUTLAYER
100
AcDb2dPolyline
 66
     1
 10
0.0
 20
0.0
 30
0.0
 70
     1
 40
0.254
 41
0.254
 75
     8
  0
VERTEX
  5
B7
100
AcDbEntity
  8
KEEPOUTLAYER
100
AcDbVertex
100
AcDb2dVertex
 10
219.0388
 20
229.155198
 30
0.0
 42
1.0
  0
VERTEX
  5
B8
100
AcDbEntity
  8
KEEPOUTLAYER
100
AcDbVertex
100
AcDb2dVertex
 10
216.038801
 20
229.155198
 30
0.0
 42
1.0
  0
SEQEND
  5
B9
100
AcDbEntity
  8
0
  0
POLYLINE
  5
BA
100
AcDbEntity
  8
KEEPOUTLAYER
100
AcDb2dPolyline
 66
     1
 10
0.0
 20
0.0
 30
0.0
 70
     1
 40
0.127
 41
0.127
 75
     8
  0
VERTEX
  5
BB
100
AcDbEntity
  8
KEEPOUTLAYER
100
AcDbVertex
100
AcDb2dVertex
 10
218.9753
 20
229.155198
 30
0.0
 42
1.0
  0
VERTEX
  5
BC
100
AcDbEntity
  8
KEEPOUTLAYER
100
AcDbVertex
100
AcDb2dVertex
 10
219.1023
 20
229.155198
 30
0.0
 42
1.0
  0
SEQEND
  5
BD
100
AcDbEntity
  8
0
  0
POLYLINE
  5
BE
100
AcDbEntity
  8
KEEPOUTLAYER
100
AcDb2dPolyline
 66
     1
 10
0.0
 20
0.0
 30
0.0
 70
     1
 40
0.127
 41
0.127
 75
     8
  0
VERTEX
  5
BF
100
AcDbEntity
  8
KEEPOUTLAYER
100
AcDbVertex
100
AcDb2dVertex
 10
215.975301
 20
229.155198
 30
0.0
 42
1.0
  0
VERTEX
  5
C0
100
AcDbEntity
  8
KEEPOUTLAYER
100
AcDbVertex
100
AcDb2dVertex
 10
216.102301
 20
229.155198
 30
0.0
 42
1.0
  0
SEQEND
  5
C1
100
AcDbEntity
  8
0
  0
POLYLINE
  5
C2
100
AcDbEntity
  8
KEEPOUTLAYER
100
AcDb2dPolyline
 66
     1
 10
0.0
 20
0.0
 30
0.0
 70
     1
 40
0.254
 41
0.254
 75
     8
  0
VERTEX
  5
C3
100
AcDbEntity
  8
KEEPOUTLAYER
100
AcDbVertex
100
AcDb2dVertex
 10
220.542998
 20
175.155197
 30
0.0
 42
1.0
  0
VERTEX
  5
C4
100
AcDbEntity
  8
KEEPOUTLAYER
100
AcDbVertex
100
AcDb2dVertex
 10
214.543
 20
175.155197
 30
0.0
 42
1.0
  0
SEQEND
  5
C5
100
AcDbEntity
  8
0
  0
POLYLINE
  5
C6
100
AcDbEntity
  8
KEEPOUTLAYER
100
AcDb2dPolyline
 66
     1
 10
0.0
 20
0.0
 30
0.0
 70
     1
 40
0.127
 41
0.127
 75
     8
  0
VERTEX
  5
C7
100
AcDbEntity
  8
KEEPOUTLAYER
100
AcDbVertex
100
AcDb2dVertex
 10
220.479498
 20
175.155197
 30
0.0
 42
1.0
  0
VERTEX
  5
C8
100
AcDbEntity
  8
KEEPOUTLAYER
100
AcDbVertex
100
AcDb2dVertex
 10
220.606498
 20
175.155197
 30
0.0
 42
1.0
  0
SEQEND
  5
C9
100
AcDbEntity
  8
0
  0
POLYLINE
  5
CA
100
AcDbEntity
  8
KEEPOUTLAYER
100
AcDb2dPolyline
 66
     1
 10
0.0
 20
0.0
 30
0.0
 70
     1
 40
0.127
 41
0.127
 75
     8
  0
VERTEX
  5
CB
100
AcDbEntity
  8
KEEPOUTLAYER
100
AcDbVertex
100
AcDb2dVertex
 10
214.4795
 20
175.155197
 30
0.0
 42
1.0
  0
VERTEX
  5
CC
100
AcDbEntity
  8
KEEPOUTLAYER
100
AcDbVertex
100
AcDb2dVertex
 10
214.6065
 20
175.155197
 30
0.0
 42
1.0
  0
SEQEND
  5
CD
100
AcDbEntity
  8
0
  0
POLYLINE
  5
CE
100
AcDbEntity
  8
KEEPOUTLAYER
100
AcDb2dPolyline
 66
     1
 10
0.0
 20
0.0
 30
0.0
 70
     1
 40
0.254
 41
0.254
 75
     8
  0
VERTEX
  5
CF
100
AcDbEntity
  8
KEEPOUTLAYER
100
AcDbVertex
100
AcDb2dVertex
 10
219.042999
 20
175.155197
 30
0.0
 42
1.0
  0
VERTEX
  5
D0
100
AcDbEntity
  8
KEEPOUTLAYER
100
AcDbVertex
100
AcDb2dVertex
 10
216.042999
 20
175.155197
 30
0.0
 42
1.0
  0
SEQEND
  5
D1
100
AcDbEntity
  8
0
  0
POLYLINE
  5
D2
100
AcDbEntity
  8
KEEPOUTLAYER
100
AcDb2dPolyline
 66
     1
 10
0.0
 20
0.0
 30
0.0
 70
     1
 40
0.127
 41
0.127
 75
     8
  0
VERTEX
  5
D3
100
AcDbEntity
  8
KEEPOUTLAYER
100
AcDbVertex
100
AcDb2dVertex
 10
218.979499
 20
175.155197
 30
0.0
 42
1.0
  0
VERTEX
  5
D4
100
AcDbEntity
  8
KEEPOUTLAYER
100
AcDbVertex
100
AcDb2dVertex
 10
219.106499
 20
175.155197
 30
0.0
 42
1.0
  0
SEQEND
  5
D5
100
AcDbEntity
  8
0
  0
POLYLINE
  5
D6
100
AcDbEntity
  8
KEEPOUTLAYER
100
AcDb2dPolyline
 66
     1
 10
0.0
 20
0.0
 30
0.0
 70
     1
 40
0.127
 41
0.127
 75
     8
  0
VERTEX
  5
D7
100
AcDbEntity
  8
KEEPOUTLAYER
100
AcDbVertex
100
AcDb2dVertex
 10
215.979499
 20
175.155197
 30
0.0
 42
1.0
  0
VERTEX
  5
D8
100
AcDbEntity
  8
KEEPOUTLAYER
100
AcDbVertex
100
AcDb2dVertex
 10
216.106499
 20
175.155197
 30
0.0
 42
1.0
  0
SEQEND
  5
D9
100
AcDbEntity
  8
0
  0
POLYLINE
  5
DA
100
AcDbEntity
  8
KEEPOUTLAYER
100
AcDb2dPolyline
 66
     1
 10
0.0
 20
0.0
 30
0.0
 40
0.254
 41
0.254
 75
     8
  0
VERTEX
  5
DB
100
AcDbEntity
  8
KEEPOUTLAYER
100
AcDbVertex
100
AcDb2dVertex
 10
220.532998
 20
233.160999
 30
0.0
 42
-0.414214
  0
VERTEX
  5
DC
100
AcDbEntity
  8
KEEPOUTLAYER
100
AcDbVertex
100
AcDb2dVertex
 10
221.5388
 20
232.155197
 30
0.0
  0
SEQEND
  5
DD
100
AcDbEntity
  8
0
  0
POLYLINE
  5
DE
100
AcDbEntity
  8
KEEPOUTLAYER
100
AcDb2dPolyline
 66
     1
 10
0.0
 20
0.0
 30
0.0
 70
     1
 40
0.127
 41
0.127
 75
     8
  0
VERTEX
  5
DF
100
AcDbEntity
  8
KEEPOUTLAYER
100
AcDbVertex
100
AcDb2dVertex
 10
220.469498
 20
233.160999
 30
0.0
 42
1.0
  0
VERTEX
  5
E0
100
AcDbEntity
  8
KEEPOUTLAYER
100
AcDbVertex
100
AcDb2dVertex
 10
220.596498
 20
233.160999
 30
0.0
 42
1.0
  0
SEQEND
  5
E1
100
AcDbEntity
  8
0
  0
POLYLINE
  5
E2
100
AcDbEntity
  8
KEEPOUTLAYER
100
AcDb2dPolyline
 66
     1
 10
0.0
 20
0.0
 30
0.0
 70
     1
 40
0.127
 41
0.127
 75
     8
  0
VERTEX
  5
E3
100
AcDbEntity
  8
KEEPOUTLAYER
100
AcDbVertex
100
AcDb2dVertex
 10
221.4753
 20
232.155197
 30
0.0
 42
1.0
  0
VERTEX
  5
E4
100
AcDbEntity
  8
KEEPOUTLAYER
100
AcDbVertex
100
AcDb2dVertex
 10
221.6023
 20
232.155197
 30
0.0
 42
1.0
  0
SEQEND
  5
E5
100
AcDbEntity
  8
0
  0
POLYLINE
  5
E6
100
AcDbEntity
  8
KEEPOUTLAYER
100
AcDb2dPolyline
 66
     1
 10
0.0
 20
0.0
 30
0.0
 40
0.254
 41
0.254
 75
     8
  0
VERTEX
  5
E7
100
AcDbEntity
  8
KEEPOUTLAYER
100
AcDbVertex
100
AcDb2dVertex
 10
126.568802
 20
232.160999
 30
0.0
 42
-0.414214
  0
VERTEX
  5
E8
100
AcDbEntity
  8
KEEPOUTLAYER
100
AcDbVertex
100
AcDb2dVertex
 10
127.568803
 20
233.160999
 30
0.0
  0
SEQEND
  5
E9
100
AcDbEntity
  8
0
  0
POLYLINE
  5
EA
100
AcDbEntity
  8
KEEPOUTLAYER
100
AcDb2dPolyline
 66
     1
 10
0.0
 20
0.0
 30
0.0
 70
     1
 40
0.127
 41
0.127
 75
     8
  0
VERTEX
  5
EB
100
AcDbEntity
  8
KEEPOUTLAYER
100
AcDbVertex
100
AcDb2dVertex
 10
126.505302
 20
232.160999
 30
0.0
 42
1.0
  0
VERTEX
  5
EC
100
AcDbEntity
  8
KEEPOUTLAYER
100
AcDbVertex
100
AcDb2dVertex
 10
126.632302
 20
232.160999
 30
0.0
 42
1.0
  0
SEQEND
  5
ED
100
AcDbEntity
  8
0
  0
POLYLINE
  5
EE
100
AcDbEntity
  8
KEEPOUTLAYER
100
AcDb2dPolyline
 66
     1
 10
0.0
 20
0.0
 30
0.0
 70
     1
 40
0.127
 41
0.127
 75
     8
  0
VERTEX
  5
EF
100
AcDbEntity
  8
KEEPOUTLAYER
100
AcDbVertex
100
AcDb2dVertex
 10
127.505303
 20
233.160999
 30
0.0
 42
1.0
  0
VERTEX
  5
F0
100
AcDbEntity
  8
KEEPOUTLAYER
100
AcDbVertex
100
AcDb2dVertex
 10
127.632303
 20
233.160999
 30
0.0
 42
1.0
  0
SEQEND
  5
F1
100
AcDbEntity
  8
0
  0
POLYLINE
  5
F2
100
AcDbEntity
  8
KEEPOUTLAYER
100
AcDb2dPolyline
 66
     1
 10
0.0
 20
0.0
 30
0.0
 40
0.254
 41
0.254
 75
     8
  0
VERTEX
  5
F3
100
AcDbEntity
  8
KEEPOUTLAYER
100
AcDbVertex
100
AcDb2dVertex
 10
127.568803
 20
171.159396
 30
0.0
 42
-0.414214
  0
VERTEX
  5
F4
100
AcDbEntity
  8
KEEPOUTLAYER
100
AcDbVertex
100
AcDb2dVertex
 10
126.568802
 20
172.159397
 30
0.0
  0
SEQEND
  5
F5
100
AcDbEntity
  8
0
  0
POLYLINE
  5
F6
100
AcDbEntity
  8
KEEPOUTLAYER
100
AcDb2dPolyline
 66
     1
 10
0.0
 20
0.0
 30
0.0
 70
     1
 40
0.127
 41
0.127
 75
     8
  0
VERTEX
  5
F7
100
AcDbEntity
  8
KEEPOUTLAYER
100
AcDbVertex
100
AcDb2dVertex
 10
127.505303
 20
171.159396
 30
0.0
 42
1.0
  0
VERTEX
  5
F8
100
AcDbEntity
  8
KEEPOUTLAYER
100
AcDbVertex
100
AcDb2dVertex
 10
127.632303
 20
171.159396
 30
0.0
 42
1.0
  0
SEQEND
  5
F9
100
AcDbEntity
  8
0
  0
POLYLINE
  5
FA
100
AcDbEntity
  8
KEEPOUTLAYER
100
AcDb2dPolyline
 66
     1
 10
0.0
 20
0.0
 30
0.0
 70
     1
 40
0.127
 41
0.127
 75
     8
  0
VERTEX
  5
FB
100
AcDbEntity
  8
KEEPOUTLAYER
100
AcDbVertex
100
AcDb2dVertex
 10
126.505302
 20
172.159397
 30
0.0
 42
1.0
  0
VERTEX
  5
FC
100
AcDbEntity
  8
KEEPOUTLAYER
100
AcDbVertex
100
AcDb2dVertex
 10
126.632302
 20
172.159397
 30
0.0
 42
1.0
  0
SEQEND
  5
FD
100
AcDbEntity
  8
0
  0
POLYLINE
  5
FE
100
AcDbEntity
  8
KEEPOUTLAYER
100
AcDb2dPolyline
 66
     1
 10
0.0
 20
0.0
 30
0.0
 40
0.254
 41
0.254
 75
     8
  0
VERTEX
  5
FF
100
AcDbEntity
  8
KEEPOUTLAYER
100
AcDbVertex
100
AcDb2dVertex
 10
221.5388
 20
172.159397
 30
0.0
 42
-0.414214
  0
VERTEX
  5
100
100
AcDbEntity
  8
KEEPOUTLAYER
100
AcDbVertex
100
AcDb2dVertex
 10
220.538799
 20
171.159396
 30
0.0
  0
SEQEND
  5
101
100
AcDbEntity
  8
0
  0
POLYLINE
  5
102
100
AcDbEntity
  8
KEEPOUTLAYER
100
AcDb2dPolyline
 66
     1
 10
0.0
 20
0.0
 30
0.0
 70
     1
 40
0.127
 41
0.127
 75
     8
  0
VERTEX
  5
103
100
AcDbEntity
  8
KEEPOUTLAYER
100
AcDbVertex
100
AcDb2dVertex
 10
221.4753
 20
172.159397
 30
0.0
 42
1.0
  0
VERTEX
  5
104
100
AcDbEntity
  8
KEEPOUTLAYER
100
AcDbVertex
100
AcDb2dVertex
 10
221.6023
 20
172.159397
 30
0.0
 42
1.0
  0
SEQEND
  5
105
100
AcDbEntity
  8
0
  0
POLYLINE
  5
106
100
AcDbEntity
  8
KEEPOUTLAYER
100
AcDb2dPolyline
 66
     1
 10
0.0
 20
0.0
 30
0.0
 70
     1
 40
0.127
 41
0.127
 75
     8
  0
VERTEX
  5
107
100
AcDbEntity
  8
KEEPOUTLAYER
100
AcDbVertex
100
AcDb2dVertex
 10
220.475299
 20
171.159396
 30
0.0
 42
1.0
  0
VERTEX
  5
108
100
AcDbEntity
  8
KEEPOUTLAYER
100
AcDbVertex
100
AcDb2dVertex
 10
220.602299
 20
171.159396
 30
0.0
 42
1.0
  0
SEQEND
  5
109
100
AcDbEntity
  8
0
  0
POLYLINE
  5
10A
100
AcDbEntity
  8
TOPSOLDER
100
AcDb2dPolyline
 66
     1
 10
0.0
 20
0.0
 30
0.0
 70
     1
 40
3.101599
 41
3.101599
 75
     8
  0
VERTEX
  5
10B
100
AcDbEntity
  8
TOPSOLDER
100
AcDbVertex
100
AcDb2dVertex
 10
215.992202
 20
175.1552
 30
0.0
 42
1.0
  0
VERTEX
  5
10C
100
AcDbEntity
  8
TOPSOLDER
100
AcDbVertex
100
AcDb2dVertex
 10
219.093801
 20
175.1552
 30
0.0
 42
1.0
  0
SEQEND
  5
10D
100
AcDbEntity
  8
0
  0
POLYLINE
  5
10E
100
AcDbEntity
  8
BOTTOMSOLDER
100
AcDb2dPolyline
 66
     1
 10
0.0
 20
0.0
 30
0.0
 70
     1
 40
3.101599
 41
3.101599
 75
     8
  0
VERTEX
  5
10F
100
AcDbEntity
  8
BOTTOMSOLDER
100
AcDbVertex
100
AcDb2dVertex
 10
215.992202
 20
175.1552
 30
0.0
 42
1.0
  0
VERTEX
  5
110
100
AcDbEntity
  8
BOTTOMSOLDER
100
AcDbVertex
100
AcDb2dVertex
 10
219.093801
 20
175.1552
 30
0.0
 42
1.0
  0
SEQEND
  5
111
100
AcDbEntity
  8
0
  0
POLYLINE
  5
112
100
AcDbEntity
  8
MULTILAYER
100
AcDb2dPolyline
 66
     1
 10
0.0
 20
0.0
 30
0.0
 70
     1
 40
2.999999
 41
2.999999
 75
     8
  0
VERTEX
  5
113
100
AcDbEntity
  8
MULTILAYER
100
AcDbVertex
100
AcDb2dVertex
 10
216.043002
 20
175.1552
 30
0.0
 42
1.0
  0
VERTEX
  5
114
100
AcDbEntity
  8
MULTILAYER
100
AcDbVertex
100
AcDb2dVertex
 10
219.043001
 20
175.1552
 30
0.0
 42
1.0
  0
SEQEND
  5
115
100
AcDbEntity
  8
0
  0
POLYLINE
  5
116
100
AcDbEntity
  8
TOPSOLDER
100
AcDb2dPolyline
 66
     1
 10
0.0
 20
0.0
 30
0.0
 70
     1
 40
3.101599
 41
3.101599
 75
     8
  0
VERTEX
  5
117
100
AcDbEntity
  8
TOPSOLDER
100
AcDbVertex
100
AcDb2dVertex
 10
128.992201
 20
175.155197
 30
0.0
 42
1.0
  0
VERTEX
  5
118
100
AcDbEntity
  8
TOPSOLDER
100
AcDbVertex
100
AcDb2dVertex
 10
132.0938
 20
175.155197
 30
0.0
 42
1.0
  0
SEQEND
  5
119
100
AcDbEntity
  8
0
  0
POLYLINE
  5
11A
100
AcDbEntity
  8
BOTTOMSOLDER
100
AcDb2dPolyline
 66
     1
 10
0.0
 20
0.0
 30
0.0
 70
     1
 40
3.101599
 41
3.101599
 75
     8
  0
VERTEX
  5
11B
100
AcDbEntity
  8
BOTTOMSOLDER
100
AcDbVertex
100
AcDb2dVertex
 10
128.992201
 20
175.155197
 30
0.0
 42
1.0
  0
VERTEX
  5
11C
100
AcDbEntity
  8
BOTTOMSOLDER
100
AcDbVertex
100
AcDb2dVertex
 10
132.0938
 20
175.155197
 30
0.0
 42
1.0
  0
SEQEND
  5
11D
100
AcDbEntity
  8
0
  0
POLYLINE
  5
11E
100
AcDbEntity
  8
MULTILAYER
100
AcDb2dPolyline
 66
     1
 10
0.0
 20
0.0
 30
0.0
 70
     1
 40
2.999999
 41
2.999999
 75
     8
  0
VERTEX
  5
11F
100
AcDbEntity
  8
MULTILAYER
100
AcDbVertex
100
AcDb2dVertex
 10
129.043001
 20
175.155197
 30
0.0
 42
1.0
  0
VERTEX
  5
120
100
AcDbEntity
  8
MULTILAYER
100
AcDbVertex
100
AcDb2dVertex
 10
132.043
 20
175.155197
 30
0.0
 42
1.0
  0
SEQEND
  5
121
100
AcDbEntity
  8
0
  0
POLYLINE
  5
122
100
AcDbEntity
  8
TOPSOLDER
100
AcDb2dPolyline
 66
     1
 10
0.0
 20
0.0
 30
0.0
 70
     1
 40
3.101599
 41
3.101599
 75
     8
  0
VERTEX
  5
123
100
AcDbEntity
  8
TOPSOLDER
100
AcDbVertex
100
AcDb2dVertex
 10
129.018002
 20
229.165198
 30
0.0
 42
1.0
  0
VERTEX
  5
124
100
AcDbEntity
  8
TOPSOLDER
100
AcDbVertex
100
AcDb2dVertex
 10
132.119601
 20
229.165198
 30
0.0
 42
1.0
  0
SEQEND
  5
125
100
AcDbEntity
  8
0
  0
POLYLINE
  5
126
100
AcDbEntity
  8
BOTTOMSOLDER
100
AcDb2dPolyline
 66
     1
 10
0.0
 20
0.0
 30
0.0
 70
     1
 40
3.101599
 41
3.101599
 75
     8
  0
VERTEX
  5
127
100
AcDbEntity
  8
BOTTOMSOLDER
100
AcDbVertex
100
AcDb2dVertex
 10
129.018002
 20
229.165198
 30
0.0
 42
1.0
  0
VERTEX
  5
128
100
AcDbEntity
  8
BOTTOMSOLDER
100
AcDbVertex
100
AcDb2dVertex
 10
132.119601
 20
229.165198
 30
0.0
 42
1.0
  0
SEQEND
  5
129
100
AcDbEntity
  8
0
  0
POLYLINE
  5
12A
100
AcDbEntity
  8
MULTILAYER
100
AcDb2dPolyline
 66
     1
 10
0.0
 20
0.0
 30
0.0
 70
     1
 40
2.999999
 41
2.999999
 75
     8
  0
VERTEX
  5
12B
100
AcDbEntity
  8
MULTILAYER
100
AcDbVertex
100
AcDb2dVertex
 10
129.068802
 20
229.165198
 30
0.0
 42
1.0
  0
VERTEX
  5
12C
100
AcDbEntity
  8
MULTILAYER
100
AcDbVertex
100
AcDb2dVertex
 10
132.068801
 20
229.165198
 30
0.0
 42
1.0
  0
SEQEND
  5
12D
100
AcDbEntity
  8
0
  0
POLYLINE
  5
12E
100
AcDbEntity
  8
TOPSOLDER
100
AcDb2dPolyline
 66
     1
 10
0.0
 20
0.0
 30
0.0
 70
     1
 40
3.101599
 41
3.101599
 75
     8
  0
VERTEX
  5
12F
100
AcDbEntity
  8
TOPSOLDER
100
AcDbVertex
100
AcDb2dVertex
 10
215.988001
 20
229.155198
 30
0.0
 42
1.0
  0
VERTEX
  5
130
100
AcDbEntity
  8
TOPSOLDER
100
AcDbVertex
100
AcDb2dVertex
 10
219.0896
 20
229.155198
 30
0.0
 42
1.0
  0
SEQEND
  5
131
100
AcDbEntity
  8
0
  0
POLYLINE
  5
132
100
AcDbEntity
  8
BOTTOMSOLDER
100
AcDb2dPolyline
 66
     1
 10
0.0
 20
0.0
 30
0.0
 70
     1
 40
3.101599
 41
3.101599
 75
     8
  0
VERTEX
  5
133
100
AcDbEntity
  8
BOTTOMSOLDER
100
AcDbVertex
100
AcDb2dVertex
 10
215.988001
 20
229.155198
 30
0.0
 42
1.0
  0
VERTEX
  5
134
100
AcDbEntity
  8
BOTTOMSOLDER
100
AcDbVertex
100
AcDb2dVertex
 10
219.0896
 20
229.155198
 30
0.0
 42
1.0
  0
SEQEND
  5
135
100
AcDbEntity
  8
0
  0
POLYLINE
  5
136
100
AcDbEntity
  8
MULTILAYER
100
AcDb2dPolyline
 66
     1
 10
0.0
 20
0.0
 30
0.0
 70
     1
 40
2.999999
 41
2.999999
 75
     8
  0
VERTEX
  5
137
100
AcDbEntity
  8
MULTILAYER
100
AcDbVertex
100
AcDb2dVertex
 10
216.038801
 20
229.155198
 30
0.0
 42
1.0
  0
VERTEX
  5
138
100
AcDbEntity
  8
MULTILAYER
100
AcDbVertex
100
AcDb2dVertex
 10
219.0388
 20
229.155198
 30
0.0
 42
1.0
  0
SEQEND
  5
139
100
AcDbEntity
  8
0
  0
INSERT
  5
208
100
AcDbEntity
  8
0
100
AcDbBlockReference
  2
HY32D_1
 10
135.218802
 20
229.860998
 30
0.0
 50
360.0
  0
TEXT
  5
209
100
AcDbEntity
  8
TOPOVERLAY
100
AcDbText
 10
135.095201
 20
230.499597
 30
0.0
 40
1.524
  1

 71
     2
100
AcDbText
  0
TEXT
  5
20A
100
AcDbEntity
  8
TOPOVERLAY
100
AcDbText
 10
137.889201
 20
230.753597
 30
0.0
 40
1.524
  1

 71
     2
100
AcDbText
  0
INSERT
  5
3E5
100
AcDbEntity
  8
0
100
AcDbBlockReference
  2
IDC34_2
 10
129.037601
 20
222.445199
 30
0.0
 50
270.0
  0
TEXT
  5
3E6
100
AcDbEntity
  8
TOPOVERLAY
100
AcDbText
 10
133.508001
 20
223.867599
 30
0.0
 40
1.524
  1

 50
270.0
 71
     2
100
AcDbText
  0
TEXT
  5
3E7
100
AcDbEntity
  8
TOPOVERLAY
100
AcDbText
 10
133.762003
 20
221.073599
 30
0.0
 40
1.524
  1

 50
270.0
 71
     2
100
AcDbText
  0
INSERT
  5
4C6
100
AcDbEntity
  8
0
100
AcDbBlockReference
  2
3_2TFT_3
 10
134.468801
 20
230.910999
 30
0.0
 50
360.0
  0
TEXT
  5
4C7
100
AcDbEntity
  8
TOPOVERLAY
100
AcDbText
 10
134.367201
 20
231.520599
 30
0.0
 40
1.524
  1

 71
     2
100
AcDbText
  0
TEXT
  5
4C8
100
AcDbEntity
  8
TOPOVERLAY
100
AcDbText
 10
137.161201
 20
231.774599
 30
0.0
 40
1.524
  1

 71
     2
100
AcDbText
  0
INSERT
  5
6A3
100
AcDbEntity
  8
0
100
AcDbBlockReference
  2
IDC34_4
 10
219.0242
 20
181.824
 30
0.0
 50
90.0
  0
TEXT
  5
6A4
100
AcDbEntity
  8
TOPOVERLAY
100
AcDbText
 10
214.5446
 20
180.410401
 30
0.0
 40
1.524
  1

 50
90.0
 71
     2
100
AcDbText
  0
TEXT
  5
6A5
100
AcDbEntity
  8
TOPOVERLAY
100
AcDbText
 10
214.290603
 20
183.204399
 30
0.0
 40
1.524
  1

 50
90.0
 71
     2
100
AcDbText
  0
ENDSEC
  0
SECTION
  2
OBJECTS
  0
DICTIONARY
  5
19
100
AcDbDictionary
  3
ACAD_GROUP
350
1A
  3
ACAD_MLINESTYLE
350
1B
  0
DICTIONARY
  5
1A
102
{ACAD_REACTORS
330
19
102
}
100
AcDbDictionary
  0
DICTIONARY
  5
1B
102
{ACAD_REACTORS
330
19
102
}
100
AcDbDictionary
  3
STANDARD
350
1C
  0
MLINESTYLE
  5
1C
102
{ACAD_REACTORS
330
1B
102
}
100
AcDbMlineStyle
  2
STANDARD
 70
     0
  3

 62
     0
 51
90.0
 52
90.0
 71
     2
 49
0.5
 62
   256
  6
BYLAYER
 49
-0.5
 62
   256
  6
BYLAYER
  0
ENDSEC
  0
EOF
